Song name
# A B C D E F G H I J K L M N O P Q R S T U V W X Y Z

Nokturnal Mortum - Lunar Poetry tab

-------------------------------------------------------------------------------
	     NOKTURNAL MORTUM-Lunar Poetry-Lunar Poetry 1996
-------------------------------------------------------------------------------
Originally tabbed by DarkstarRising jurakic666@yahoo.com
Transcribed to text format by Koliak2991 Koliak2991@hotmail.com
The intro is really the only part of the song I like, the slow part gets boring so this 
the part I tabbed out
Slava Perunu i vechnaya Slava geroyam!


Tuning:Standard
Part 1
Tremolo pick all notes
e|---------------------------------------------------------------------------|
B|---------------------------------------------------------------------------|
G|---------------------------------------------------------------------------|
D|---------------------------------------------------------------------------|
A|-9-9-7-7-9-9-7-7-10-10-9-9-9-9-10-9----------------------------------------|
E|---------------------------------------------------------------------------|
Keyboard comes in
e|-15-14-12-14-15-14-12-14-15-14-12-14-15-14-12-14---------------------------|
B|---------------------------------------------------------------------------|
G|---------------------------------------------------------------------------|
D|---------------------------------------------------------------------------|
A|---------------------------------------------------------------------------|
E|---------------------------------------------------------------------------|

e|15-14----14-15-14----15-14----14-15-14----14-------------------------------|
B|------13----------13-------12----------12----------------------------------|
G|---------------------------------------------------------------------------|
D|---------------------------------------------------------------------------|
A|---------------------------------------------------------------------------|
E|---------------------------------------------------------------------------|
Part 2
e|---------------------------------------------------------------------------|
B|---------------------------------------------------------------------------|
G|---------------------------------------------------------------------------|
D|---------------------------------------------------------------------------|
A|-9-9-7-7-9-9-7-9-12-12-12-12-9-9-10-9--------------------------------------|
E|---------------------------------------------------------------------------|

| /  slide up
| \  slide down
| h  hammer-on
| p  pull-off
| ~  vibrato
| +  harmonic
| x  Mute note
===============================================================================
Tap to rate this tab
# A B C D E F G H I J K L M N O P Q R S T U V W X Y Z