Song name
# A B C D E F G H I J K L M N O P Q R S T U V W X Y Z

Nomad Son - Forever Twilight tab

---------------------------------------------------------------------
                  FOREVER TWILIGHT - Nomad Son
                     GUITARIST: Chris Grech
---------------------------------------------------------------------
Tabbed by: Atrumluminarium

NOTES:
************************************
Nomad Son http://www.myspace.com/nomadsonmalta
************************************ 
Tuning (from fat E) -E-A-D-G-B-e-:
************************************
intro divided into 3 parts
************************************
listen to song at: http://www.youtube.com/watch?feature=player_profilepage&v=pjHrdtaHy2o
************************************
| /   slide up
| \   slide down
| h   hammer-on
| p   pull-off
| ~   vibrato
| +   harmonic
| x   Mute note
| b   Bend
| pb  Pre-bend
| br  Bend release
| pbr Pre-bend release
| brb Bend release bend
************************************

intro pt.1 (repeat as many times necessary)
e|-----------------------------------------------------------------------|
B|-----------------------------------------------------------------------|
G|-----------------------------------------------------------------------|
D|-----------------------------------------------------------------------|
A|-2---5-7-5---2---5/6-5---2---5-7-5---2-2---2-3-5---7-6-5---7-9---------|
E|-0---3-5-3---0---3/4-3---0---3-5-3---0-0---0-1-3---5-4-3---5-7---------|
                                       PM-


intro pt.2 (with feedback from amp)
e|----------------------------------------------|
B|----------------------------------------------|
G|----------------------------------------------|
D|----------------------------------------------|
A|--2-feedback-2-feedback-2-feedback-2-feedback-|
E|--0----------0----------0----------0----------|


intro pt.3 (repeat as many times necessary
e|-----------------------------------------------|
B|-----------------------------------------------|
G|-----------------------------------------------|
D|-----------------------------------------------|
A|-2-2--3-2-0-3-2-0-2-3-2--2-2--3-2-0-3-2-0-3----|
E|-0-0---------------------0-0-------------------|
Tap to rate this tab
 
# A B C D E F G H I J K L M N O P Q R S T U V W X Y Z