Song name
# A B C D E F G H I J K L M N O P Q R S T U V W X Y Z

Nomadi - Il Pilota Di Hiroshima tab

IL PILOTA DI HIROSHIMA (Nomadi)
______________________________________________________________
tabbed by Masho90



intro:

   Mim               Mim
e|-0-----3-2-0-2---|-0---------------|
B|---------------3-|-----------------|
G|-----------------|-----------------|
D|-----------------|-----------------|
A|-----------------|-----------------|
E|-----------------|-----------------|
   ^   ^   ^   ^     ^   ^   ^   ^

   Mim     Re        Sim
e|-0-----3-2-0---0-|-----------------|
B|-------------3---|-0---------------|
G|-----------------|-----------------|
D|-----------------|-----------------|
A|-----------------|-----------------|
E|-----------------|-----------------|
   ^   ^   ^   ^     ^   ^   ^   ^

   Sol               Lam
e|-----------0-----|-----------------0-|
B|---------0---0---|-------------0-3---|
G|-0-----2-------0-|-2---------2-------|
D|-----------------|-------------------|
A|-----------------|-------------------|
E|-----------------|-------------------|
   ^   ^   ^   ^     ^   ^   ^   ^

   Sim               Mim
e|-2-----3-2-0-----|-0---------------|
B|-------------3-0-|-----------------|
G|-----------------|-----------------|
D|-----------------|-----------------|
A|-----------------|-----------------|
E|-----------------|-----------------|
   ^   ^   ^   ^     ^   ^   ^   ^


Mim
Fuori nel mondo chissą dove

                Re            Sim
o su nel cielo fra gli eterni eroi,

       La                    Sim
ma nel fondo di un profondo eterno

        Lam                 Mim
vive un uomo, vive il suo inferno.




Mim
La sua bocca pił non parla,

                  Re      Sim
le sue notti non le dorme pił

      La                      Sim
sta nascosto dietro il suo pensiero,

         Lam                  Mim
muore un uomo, muore senza il vero.



Re                      Sim
Il pilota di Hiroshima,

        Mim                  Sim
un duro alla maniera di John Wayne,

         La                    Mim
Ray Ban scuri, il lavoro era guerra,

         Lam
ma negli occhi

                 Mim
quel bimbo sulla terra.




Mim
Fuori nel mondo chissą dove,

                  Re         Sim
nel riflesso del cielo nello stagno,

           La                Sim
striscia ancora la scia di vapore

       Lam                Mim
del suo aereo e di quelle ore.





interlude:


   Mim               Mim
e|-0-----3-2-0-2---|-0---------------|
B|---------------3-|-----------------|
G|-----------------|-----------------|
D|-----------------|-----------------|
A|-----------------|-----------------|
E|-----------------|-----------------|
   ^   ^   ^   ^     ^   ^   ^   ^

   Mim     Re        Sim
e|-0-----3-2-0---0-|-----------------|
B|-------------3---|-0---------------|
G|-----------------|-----------------|
D|-----------------|-----------------|
A|-----------------|-----------------|
E|-----------------|-----------------|
   ^   ^   ^   ^     ^   ^   ^   ^

   Sol               Lam
e|-----------0-----|-----------------0-|
B|---------0---0---|-------------0-3---|
G|-0-----2-------0-|-2---------2-------|
D|-----------------|-------------------|
A|-----------------|-------------------|
E|-----------------|-------------------|
   ^   ^   ^   ^     ^   ^   ^   ^

   Sim               Mim
e|-2-----3-2-0-----|-0---------------|
B|-------------3-0-|-----------------|
G|-----------------|-----------------|
D|-----------------|-----------------|
A|-----------------|-----------------|
E|-----------------|-----------------|
   ^   ^   ^   ^     ^   ^   ^   ^




Re                      Sim
Il pilota di Hiroshima,

        Mim                  Sim
un duro alla maniera di John Wayne,

         La                    Mim
Ray Ban scuri, il lavoro era guerra,

         Lam
ma negli occhi

                 Mim
quel bimbo sulla terra.




Mim
Sente battere le ali,

                  Re            Sim
sente il freddo tutto intorno a sé,

      La                   Sim
vede luci di luce pił abbagliante,

         Lam                 Mim
di quel sole esploso in un istante.




outro:

   (Mim)           Re      Lam      Mim     Si       Mim
e|---------0-0-2-|-------0--------|----------------|----------------|
B|---------------|-3-------1------|-0-------4------|-5--------------|
G|---------------|--------------2-|----------------|----------------|
D|---------------|----------------|----------------|----------------|
A|---------------|----------------|----------------|----------------|
E|---------------|----------------|----------------|----------------|
   ^  ^  ^   ^     ^   ^   ^   ^    ^   ^   ^   ^    ^   ^   ^   ^
Tap to rate this tab
 
# A B C D E F G H I J K L M N O P Q R S T U V W X Y Z