Guitaretab - guitar tabs
Song name
# A B C D E F G H I J K L M N O P Q R S T U V W X Y Z

Nomadi - Dove Si Va tab

Questa  l'introduzione con la chitarra:
   RE             LA            MI                     FA#-(7)
E||----2--2---2--|-------------|----------0--0-----0--|---x--|-------------|
B||----3--3---3--|---2--2---2--|----------0--0-----0--|---5--|-------------|
G||----2--2---2--|---2--2---2--|----------1--1-----1--|---2--|-4/6\4-------|
D||-0-------0----|---2--2---2--|----------2--2-----2--|---4--|-------2/4\2-|
A||--------------|-0------0----|-2h4p2----2--2-----2--|---x--|-------------|
E||--------------|-------------|-------0--0--0--0--0--|-2----|-------------|

   RE             LA            MI                     FA#-(7)
E||----2--2---2--|-------------|----------0--0-----0--|---x-x---x--|-----------|
B||----3--3---3--|---2--2---2--|----------0--0-----0--|---x-x---5--|-----------|
G||----2--2---2--|---2--2---2--|----------1--1-----1--|---x-x---2--|-------2---|
D||-0-------0----|---2--2---2--|----------2--2-----2--|---x-x---x--|-2-2h4---4-|
A||--------------|-0------0----|-2h4p2----2--2-----2--|---x-x------|-----------|
E||--------------|-------------|-------0--0--0--0--0--|-2-x-x------|-----------|
[ Tab from: http://www.guitaretab.com/n/nomadi/77604.html ]
   RE             LA            MI                     FA#-(7)
E||----2--2---2--|-------------|----------0--0-----0--|---------------------|
B||----3--3---3--|---2--2---2--|----------0--0-----0--|---------------------|
G||----2--2---2--|---2--2---2--|----------1--1-----1--|---2-----------------|
D||-0-------0----|---2--2---2--|----------2--2-----2--|---2-4v--2-----------|
A||--------------|-0------0----|-2h4p2----2--2-----2--|-----------4-0-2p0---|
E||--------------|-------------|-------0--0--0--0--0--|-2-----------------2-|

   RE             SI-                MI
E||----2--2---2--|------2--2-----2--|----0--0-----0-|-----------------|
B||----3--3---3--|------3--3-----3--|----0--0-----0-|-----------------|
G||----2--2---2--|------4--4-----4--|----1--1-----1-|-----------------|
D||-0-------0----|------4--4-----4--|----2--2-----2-|-2-2-2-2-2-2-2-2-|
A||--------------|-4-2--2--2--2--2--|----2--2-----2-|-2-2-2-2-2-2-2-2-|
E||--------------|------------------|-0--0--0--0--0-|-0-0-0-0-0-0-0-2-|
                                                     P.M.=============>


Mentre questo  il piccolo assolo:
   FA#-                                           MI             RE
E||----------------------------------------------|---------------------|
B||---------19v\\-----------19v\\----------19v\\-|---------------15v\\-|
G||----------------------------------------------|-9/11-13-14-11-------|
D||----------------------------------------------|---------------------|
A||----------------------------------------------|---------------------|
E||-12/14v---------12/14v----------12/14~--------|---------------------|



LEGENDA
h=>hammer on
p=>pull off
x=>nota stoppata
/=>slide ascendente
\=>slide discendente
\\=>slide discendente lungo tutta la corda
v=>vibrato
P.M.=>palm muting

Related for Dove Si Va tab