Nomy - Cocaine tab

    NOMY - COCAINE
--------------------------- THIS IS MY FIRST TAB --------------------------
---------------------------------------------------------------------------



e|-------------------------------------------------------------------------|
B|-------------------------------------------------------------------------|
G|-6-6---------------------------------------------------------------------|
D|-6-6---------------------------------------------------------------------|
A|-4-4-4-4-4-4-4-4-4-4-4-4-4-4-7-7-7-7-7-7-7-7-7-7-7-7-7-7-7-7-2-2-2-2-2-2-|
E|-------------------------------------------------------------------------|

e|-------------------------------------------------------------------------|
B|-------------------------------------------------------------------------|
G|------------------------------------------------------6/88-8-6-6/88-8\---|
D|------------------------------------------------------xxxx-x-x-xxxx-x----|
A|-2-2-2-2-2-2-2-2-2-2-9-9-9-9-9-9-9-9-9-9-9-9-9-9-9-9--4/66-6-4-4/66-6\---|
E|-------------------------------------------------------------------------|


e|-------------------------------------------------------------------------|
B|-------------------------------------------------------------------------|
G|-6-6-6-6-6-6-6-9-9-9-9-9-9-9-11111111111111------4-----------------------|
D|-6-6-6-6-6-6-6-9-9-9-9-9-9-9-9-9-9-9-9-9-9---6---4-----------------------|
A|-4-4-4-4-4-4-4-7-7-7-7-7-7-7-9-9-9-9-9-9-9---6---2-----------------------|
E|---------------------------------------------4---------------------------|

                                                       | LET RING
e|-------------------------------------------------------------------------|
B|-------------------------------------------------------------------------|
G|-6-6-6-6-6-6-6-9-9-9-9-9-9-9---------------------9-4-6-------------------|
D|-6-6-6-6-6-6-6-9-9-9-9-9-9-9-4-4-4-4-4-4-4-6-6-6-9-4-6-------------------|
A|-4-4-4-4-4-4-4-7-7-7-7-7-7-7-4-4-4-4-4-4-4-6-6-6-7-2-4-------------------|
E|-----------------------------2-2-2-2-2-2-2-4-4-4-------------------------|

  MUTED
e|-------------------------------------------------------------------------|
B|-------------------------------------------------------------------------|
G|-------------------------------------------------------------------------|
D|-------------------------------------------------------------------------|
A|-4-4-4-4-4-4-4-4-4-4-4-4-4-4-7-7-7-7-7-7-7-7-7-7-7-7-7-7-7-7-2-2-2-2-2-2-|
E|-------------------------------------------------------------------------|

e|-------------------------------------------------------------------------|
B|-------------------------------------------------------------------------|
G|-------------------------------------------------------------------------|
D|-------------------------------------------------------------------------|
A|-2-2-2-2-2-2-2-2-2-2-9-9-9-9-9-9-9-9-9-9-9-9-9-9-9-9---------------------|
E|-------------------------------------------------------------------------|

  MUTED
e|-------------------------------------------------------------------------|
B|-------------------------------------------------------------------------|
G|-------------------------------------------------------------------------|
D|-------------------------------------------------------------------------|
A|-4-4-4-4-4-4-4-4-4-4-4-4-4-4-7-7-7-7-7-7-7-7-7-7-7-7-7-7-7-7-2-2-2-2-2-2-|
E|-------------------------------------------------------------------------|

e|-------------------------------------------------------------------------|
B|-------------------------------------------------------------------------|
G|-------------------------------------------------------------------------|
D|-------------------------------------------------------------------------|
A|-2-2-2-2-2-2-2-2-2-2-9-9-9-9-9-9-9-9-9-9-9-9-9-9-9-9---------------------|
E|-------------------------------------------------------------------------|

                            
   MUTED                                                       | NOT MUTTED
e|-------------------------------------------------------------------------|
B|-------------------------------------------------------------------------|
G|-------------------------------------------------------------------------|
D|-------------------------------------------------------------4-4-4-4-4-4-|
A|-4-4-4-4-4-4-4-4-4-4-4-4-4-4-7-7-7-7-7-7-7-7-7-7-7-7-7-7-7-7\2-2-2-2-2-2-|
E|-------------------------------------------------------------------------|

                                                                Now it's too
e|-------------------------------------------------------------------------|
B|-------------------------------------------------------------------------|
G|--------------------------------------6/88-8-6-6/88-8\-------------------|
D|-4-4-4-4-4-4-4-4-6-6-6-6-6-9-9-9-9-9--xxxx-x-x-xxxx-x--------------------|
A|-2-4-4-4-4-4-4-4-4-4-4-4-4-7-7-7-7-7--4/66-6-4-4/66-6\-------------------|
E|---2-2-2-2-2-2-2---------------------------------------------------------|

          (D - Down, U - Up)
...late                                                        Now it's too
   D D D DUD D D DUD D D DUD D .....                        
e|-------------------------------------------------------------------------|
B|-------------------------------------------------------------------------|
G|-6-6-6-66--------9-9-9-994-4-4-446-6-6-66--------9-9-9-99----------------|
D|-6-6-6-667-7-7-779-9-9-994-4-4-446-6-6-667-7-7-779-9-9-994-4-------------|
A|-4-4-4-447-7-7-777-7-7-772-2-2-224-4-4-447-7-7-777-7-7-772-2-------------|
E|---------5-5-5-55------------------------5-5-5-55------------------------|

...late                                            ....D DUD D D DU
e|-------------------------------------------------------------------------|
B|-------------------------------------------------------------------------|
G|-6-6-6-66--------9-9-9-994-4-4-446-6-6-66--------9-9-9-99----------------|
D|-6-6-6-667-7-7-779-9-9-994-4-4-446-6-6-667-7-7-779-9-9-994-4-4-44--------|
A|-4-4-4-447-7-7-777-7-7-772-2-2-224-4-4-447-7-7-777-7-7-772-2-2-22--------|
E|---------5-5-5-55------------------------5-5-5-55------------------------|

   
   D DUD DUD DUD DUD....
e|-------------------------------------------------------------------------|
B|-------------------------------------------------------------------------|
G|-----------------9-999-994-444-44----------------9-999-994-444-4---------|
D|-7-777-774-444-449-999-994-444-447-777-774-444-449-999-994-444-4---------|
A|-7-777-774-444-447-777-772-222-227-777-774-444-447-777-772-222-2---------|
E|-5-555-552-222-22----------------5-575-552-222-22------------------------|


  MUTED
e|-------------------------------------------------------------------------|
B|-------------------------------------------------------------------------|
G|-------------------------------------------------------------------------|
D|-------------------------------------------------------------------------|
A|-4-4-4-4-4-4-4-4-4-4-4-4-4-4-7-7-7-7-7-7-7-7-7-7-7-7-7-7-7-7-2-2-2-2-2-2-|
E|-------------------------------------------------------------------------|

e|-------------------------------------------------------------------------|
B|-------------------------------------------------------------------------|
G|-------------------------------------------------------------------------|
D|-------------------------------------------------------------------------|
A|-2-2-2-2-2-2-2-2-2-2-----------------------------------------------------|
E|---------------------4-4-4-4-4-4-4-4-6-6-6-6-6-6-6-6---------------------|

 MUTED
e|-------------------------------------------------------------------------|
B|-------------------------------------------------------------------------|
G|-------------------------------------------------------------------------|
D|-------------------------------------------------------------------------|
A|-4-4-4-4-4-4-4-4-4-4-4-4-4-4-7-7-7-7-7-7-7-7-7-7-7-7-7-7-7-7-2-2-2-2-2-2-|
E|-------------------------------------------------------------------------|


e|-------------------------------------------------------------------------|
B|-------------------------------------------------------------------------|
G|-----------------------------------------------------6/88-8-6-6/88-8\----|
D|-----------------------------------------------------xxxx-x-x-xxxx-x-----|
A|-2-2-2-2-2-2-2-2-2-2---------------------------------4/66-6-4-4/66-6\----|
E|---------------------4-4-4-4-4-4-4-4-6-6-6-6-6-6-6-6---------------------|

...late	                                                       Now it's too
e|-------------------------------------------------------------------------|
B|-------------------------------------------------------------------------|
G|-6-6-6-66--------9-9-9-994-4-4-446-6-6-66--------9-9-9-99----------------|
D|-6-6-6-667-7-7-779-9-9-994-4-4-446-6-6-667-7-7-779-9-9-994-4-------------|
A|-4-4-4-447-7-7-777-7-7-772-2-2-224-4-4-447-7-7-777-7-7-772-2-------------|
E|---------5-5-5-55------------------------5-5-5-55------------------------|
 
...late 
e|-------------------------------------------------------------------------|
B|-------------------------------------------------------------------------|
G|-6-6-6-66--------9-9-9-994-4-4-446-6-6-66--------9-9-9-99----------------|
D|-6-6-6-667-7-7-779-9-9-994-4-4-446-6-6-667-7-7-779-9-9-994-4-4-44--------|
A|-4-4-4-447-7-7-777-7-7-772-2-2-224-4-4-447-7-7-777-7-7-772-2-2-22--------|
E|---------5-5-5-55------------------------5-5-5-55------------------------|

e|-------------------------------------------------------------------------|
B|-------------------------------------------------------------------------|
G|-----------------9-999-994-444-44----------------9-999-994-444-4---------|
D|-7-777-774-444-449-999-994-444-447-777-774-444-449-999-994-444-4---------|
A|-7-777-774-444-447-777-772-222-227-777-774-444-447-777-772-222-2---------|
E|-5-555-552-222-22----------------5-575-552-222-22------------------------|

e|-------------------------------------------------------------------------|
B|-------------------------------------------------------------------------|
G|-6-6-6-6-6-6-6-9-9-9-9-9-9-9-11111111111111------4-----------------------|
D|-6-6-6-6-6-6-6-9-9-9-9-9-9-9-9-9-9-9-9-9-9---6---4-----------------------|
A|-4-4-4-4-4-4-4-7-7-7-7-7-7-7-9-9-9-9-9-9-9---6---2-----------------------|
E|---------------------------------------------4---------------------------|

                                                       | LET RING
e|-------------------------------------------------------------------------|
B|-------------------------------------------------------------------------|
G|-6-6-6-6-6-6-6-9-9-9-9-9-9-9---------------------9-4-6-------------------|
D|-6-6-6-6-6-6-6-9-9-9-9-9-9-9-4-4-4-4-4-4-4-6-6-6-9-4-6-------------------|
A|-4-4-4-4-4-4-4-7-7-7-7-7-7-7-4-4-4-4-4-4-4-6-6-6-7-2-4-------------------|
E|-----------------------------2-2-2-2-2-2-2-4-4-4-------------------------|


e|-------------------------------------------------------------------------|
B|-------------------------------------------------------------------------|
G|-6-6--6-6--9-9--9-9--4-4--4-4--------------------------------------------|
D|-6-6--6-6--9-9--9-9--4-4--4-4--4-4--4-4----------------------------------|
A|-4-4--4-4--7-7--7-7--2-2--2-2--4-4--4-4----------------------------------|
E|-------------------------------2-2--2-2----------------------------------|

e|-------------------------------------------------------------------------|
B|-------------------------------------------------------------------------|
G|-6-6--6-6--9-9--9-9--4-4--4-4-----------6/88-8-6-6/88-8\-6/88-8-6-6/88-8\|
D|-6-6--6-6--9-9--9-9--4-4--4-4--4-4--4-4-xxxx-x-x-xxxx-x--xxxx-x-x-xxxx-x-|
A|-4-4--4-4--7-7--7-7--2-2--2-2--4-4--4-4-4/66-6-4-4/66-6\-4/66-6-4-4/66-6\|
E|-------------------------------2-2--2-2----------------------------------|

...late                                                        Now it's too
e|-------------------------------------------------------------------------|
B|-------------------------------------------------------------------------|
G|-6-6-6-66--------9-9-9-994-4-4-446-6-6-66--------9-9-9-99----------------|
D|-6-6-6-667-7-7-779-9-9-994-4-4-446-6-6-667-7-7-779-9-9-994-4-------------|
A|-4-4-4-447-7-7-777-7-7-772-2-2-224-4-4-447-7-7-777-7-7-772-2-------------|
E|---------5-5-5-55------------------------5-5-5-55------------------------|
 
...late 
e|-------------------------------------------------------------------------|
B|-------------------------------------------------------------------------|
G|-6-6-6-66--------9-9-9-994-4-4-446-6-6-66--------9-9-9-99----------------|
D|-6-6-6-667-7-7-779-9-9-994-4-4-446-6-6-667-7-7-779-9-9-994-4-4-44--------|
A|-4-4-4-447-7-7-777-7-7-772-2-2-224-4-4-447-7-7-777-7-7-772-2-2-22--------|
E|---------5-5-5-55------------------------5-5-5-55------------------------|


e|-------------------------------------------------------------------------|
B|-------------------------------------------------------------------------|
G|-----------------9-999-994-444-44----------------9-999-994-444-4---------|
D|-7-777-774-444-449-999-994-444-447-777-774-444-449-999-994-444-4---------|
A|-7-777-774-444-447-777-772-222-227-777-774-444-447-777-772-222-2---------|
E|-5-555-552-222-22----------------5-575-552-222-22------------------------|

e|-------------------------------------------------------------------------|
B|-------------------------------------------------------------------------|
G|-6-6-6-66--------9-9-9-994-4-4-446-6-6-66--------9-9-9-99----------------|
D|-6-6-6-667-7-7-779-9-9-994-4-4-446-6-6-667-7-7-779-9-9-994-4-------------|
A|-4-4-4-447-7-7-777-7-7-772-2-2-224-4-4-447-7-7-777-7-7-772-2-------------|
E|---------5-5-5-55------------------------5-5-5-55------------------------|

e|-------------------------------------------------------------------------|
B|-------------------------------------------------------------------------|
G|-6-6---------9-9---4-4---6-6---------------------------------------------|
D|-6-6---7-7---9-9---4-4---6-6---------------------------------------------|
A|-4-4---7-7---7-7---2-2---4-4---------------------------------------------|
E|-------5-5---------------------------------------------------------------|
Tap to rate this tab
 
# A B C D E F G H I J K L M N O P Q R S T U V W X Y Z