Song name
# A B C D E F G H I J K L M N O P Q R S T U V W X Y Z

Nomy - Spank My Ass tab

-------------------------------------------------------------------------------
			     SPANK MY ASS - Nomy
-------------------------------------------------------------------------------
Tabbed by: John Jay
Email: ultimateguitar909@gmail.com

Tuning: Standard

Intro (clean):
e|---------------------------------------------------------------------------|
B|---------------------------------------------------------------------------|
G|---------------------------------------------------------------------------|
D|--11---------6---------8---------6-----------------------------------------|
A|--11-x16-----6-x16-----8-x16-----6-x12----(pause)--------------------------|
E|---------------------------------------------------------------------------|

Chorus 1 (distortion):
e|---------------------------------------------------------------------------|
B|---------------------------------------------------------------------------|
G|---------------------------------------------------------------------------|
D|--11---------6---------8---------6------------------6----------------------|
A|--11---------6---------8---------6--------(pause)---6----------------------|
E|--9--x16-----4-x16-----6-x16-----4-x8---------------4-x8-------------------|

Verse 1:
e|---------------------------------------------------------------------------|
B|---------------------------------------------------------------------------|
G|---------------------------------11-----------------11---------------------|
D|--11---------6---------8---------11-----------------11---------------------| x4
A|--11---------6---------8---------9-x3-----(pause)---9----------------------|
E|--9--x3------4-x3------6-x3------------------------------------------------|

Chorus 2:
e|---------------------------------------------------------------------------|
B|---------------------------------------------------------------------------|
G|---------------------------------------------------------------------------|
D|--11---------6---------8---------6------------------6----------------------|
A|--11---------6---------8---------6--------(pause)---6----------------------|
E|--9--x16-----4-x16-----6-x16-----4-x8---------------4-x8-------------------|

Verse 2:
e|---------------------------------------------------------------------------|
B|---------------------------------------------------------------------------|
G|---------------------------------11-----------------11---------------------|
D|--11---------6---------8---------11-----------------11---------------------| x4
A|--11---------6---------8---------9-x3-----(pause)---9----------------------|
E|--9--x3------4-x3------6-x3------------------------------------------------|

Chorus 3:
e|---------------------------------------------------------------------------|
B|---------------------------------------------------------------------------|
G|---------------------------------------------------------------------------|
D|--11---------6---------8---------6------------------6----------------------|
A|--11---------6---------8---------6--------(pause)---6----------------------|
E|--9--x16-----4-x16-----6-x16-----4-x8---------------4-x8-------------------|

Extended Chorus:
e|---------------------------------------------------------------------------|
B|---------------------------------------------------------------------------|
G|---------------------------------------------------------------------------|
D|--11---------6---------8---------6------------------6----------------------|
A|--11---------6---------8---------6--------(pause)---6----------------------|
E|--9--x16-----4-x16-----6-x16-----4-x8---------------4-x8-------------------|

Solo:
e|---------------------------------------------------------------------------|
B|--16 14 13 13 14-------14 16 18-------16 18 21 21 16-----------------------|
G|---------------------------------------------------------------------------|
D|---------------------------------------------------------------------------|
A|---------------------------------------------------------------------------|
E|---------------------------------------------------------------------------|

e|---------------------------------------------------------------------------|
B|--16 14 13 13 11-------11 13 14-------13 14    16 13-----------------------|
G|---------------------------------------------------------------------------|
D|---------------------------------------------------------------------------|
A|---------------------------------------------------------------------------|
E|---------------------------------------------------------------------------|

Chorus 4:
e|---------------------------------------------------------------------------|
B|---------------------------------------------------------------------------|
G|---------------------------------------------------------------------------|
D|--11---------6---------8---------6------------------6----------------------| x3
A|--11---------6---------8---------6--------(pause)---6----------------------|
E|--9--x16-----4-x16-----6-x16-----4-x8---------------4-x8-------------------| 



************************************

| /   slide up
| \   slide down
| h   hammer-on
| p   pull-off
| ~   vibrato
| +   harmonic
| x   Mute note
| b   Bend
| pb  Pre-bend
| br  Bend release
| pbr Pre-bend release
| brb Bend release bend

************************************
Tap to rate this tab
# A B C D E F G H I J K L M N O P Q R S T U V W X Y Z