Non Phixion - Black Helicopters tab

This song samples a bit of Eisaku Ohkawa's "Yu No Machi Elegy."
Both guitar and bass here, pretty simple stuff.

~ = let it ring

Guitar I/II
                                                           (woodwind fill)
e------10-10~-10--11-10-8-10-8~---------11-11-11-10-8-10~|*|-------15~----|
B-8~~----------------------------9~8~~-------------------| |-----16----16~|
G--------------------------------------------------------| |---16---------|
D--------------------------------------------------------| |--------------|
A--------------------------------------------------------| |--------------|
E--------------------------------------------------------|*|--------------|

e---------------11-11-10~--------------------------------|
B-6~~-6-8~9-8~------------9~8~~----------8-8-------------|
G-------------------------------8-8~7~5~-----8-8-7-7-----|
D--------------------------------------------------------|
A--------------------------------------------------------|
E--------------------------------------------------------|


Bass Guitar:

G---------------------------------|
D--------------11~-11~-11~--------|
A--11~-12~-11~-------------11~-11~|
E---------------------------------|

G---------------------------------|
D----------------14~-14~-14~-14~--|
A--9~-11~-11~-9~------------------|
E---------------------------------|

http://www.myspace.com/nonphixion
Tap to rate this tab
 
# A B C D E F G H I J K L M N O P Q R S T U V W X Y Z