Song name
# A B C D E F G H I J K L M N O P Q R S T U V W X Y Z

None More Black - We Dance On The Ruins Of This Stupid Stage tab

By THELOOT

VERSE

E|-----------------------------------|
B|-----------------------------------|
G|-----------------------------------|
D|--7-7-7-7-7-7-7-7-7-7-7-6-6-6-6-6--| 2x then
A|--7-7-7-7-7-7-7-7-7-7-7-7-7-7-7-7--|
E|--5-5-5-5-5-5-5-5-5-5-5-4-4-4-4-4--|

E|----------------------------------------|
B|----------------------------------------|
G|--7-7-7-7-7-7-7-7-7-7-7--7--7--7--7--7--|
D|--9-9-9-9-9-9-9-9-9-9-9--11-11-11-11-11-| 2x then
A|--9-9-9-9-9-9-9-9-9-9-9--9--9--9--9--9--|
E|--7-7-7-7-7-7-7-7-7-7-7--7--7--7--7--7--|

E|-------------------------------|
B|-------------------------------|
G|--9--9-9-9--9-9-9--9-9-9--9-9--|
D|--7--7-7-6--6-6-x--x-x-x--x-x--| 2x then
A|----------------9--9-9-7--7-7--|
E|-------------------------------|

E|-----------------------------------|
B|-----------------------------------|
G|--7-7-7-7-7-6-6-6-4-4-4------------|
D|--7-7-7-7-7-6-6-6-4-4-4-7-7-7-7-7--| then start over again 2x
A|--5-5-5-5-5-4-4-4-2-2-2-7-7-7-7-7--|
E|------------------------5-5-5-5-5--|

CHORUS

              1st Guitar
E|-----------------------------------------------------|
B|-----------------------------------------------------|
G|-----------------------------------------------------|
D|--7-7-7-7-7-7-7-7-7-7-7-6-6-6-6-6-6-6-7-7-7-7-7-7-7--|
A|--7-7-7-7-7-7-7-7-7-7-7-7-7-7-7-7-7-7-7-7-7-7-7-7-7--|
E|--5-5-5-5-5-5-5-5-5-5-5-4-4-4-4-4-4-4-5-5-5-5-5-5-5--|

              2nd Guitar
E|----------------------------------------------------------------------|
B|--10-10-10-10-10-10-10-10-10-10-10-9-9-9-9-9-9-9-10-10-10-10-10-10-10-|
G|--x--x--x--x--x--x--x--x--x--x--x--x-x-x-x-x-x-x-x--x--x--x--x--x--x--|
D|--7--7--7--7--7--7--7--7--7--7--7--6-6-6-6-6-6-6-7--7--7--7--7--7--7--|
A|----------------------------------------------------------------------|
E|----------------------------------------------------------------------|

             1st Guitar
E|-------------------------------------------------------------------------|
B|-------------------------------------------------------------------------|
G|--7-7-7-6-6-6-6-6-6-6-6-6-6----------------------------------------------|
D|--7-7-7-6-6-6-6-6-6-6-6-6-6-7-7-7-7-7-7-7-7-7-9-9-9-9-9-6-6-6-6-7-7-7-7--|
A|--5-5-5-4-4-4-4-4-4-4-4-4-4-7-7-7-7-7-7-7-7-7-9-9-9-9-9-6-6-6-6-7-7-7-7--|
E|----------------------------5-5-5-5-5-5-5-5-5-7-7-7-7-7-4-4-4-4-5-5-5-5--|

             2nd Guitar
E|-----------------------------------------------------------------------|
B|-----------------------------10-10-10-10-10-10-10-10-10-12-12-12-12-12-|
G|--7-7-7-6-6-6-6-6-6-6-6-6-6--x--x--x--x--x--x--x--x--x--x--x--x--x--x--|
D|--x-x-x-x-x-x-x-x-x-x-x-x-x--7--7--7--7--7--7--7--7--7--9--9--9--9--9--|
A|--5-5-5-4-4-4-4-4-4-4-4-4-4--------------------------------------------|
E|-----------------------------------------------------------------------|

--------------------------------|
--9-9-9-9-10-10-10-10-10-10-10--|
--x-x-x-x-x--x--x--x--x--x--x---|
--6-6-6-6-7--7--7--7--7--7--7---|
--------------------------------|
--------------------------------|
Tap to rate this tab
# A B C D E F G H I J K L M N O P Q R S T U V W X Y Z