Song name
# A B C D E F G H I J K L M N O P Q R S T U V W X Y Z

None More Black - Risk Management tab

------------------------------------------------------------------------------------
                      RISK MANAGEMENT - none more black
------------------------------------------------------------------------------------

Band: None More Black
Album: File Under Black (2003, Fat Wreck Chords)
Song: Risk Management

Tabbed by Kyle T.
Contact: pants_me@hotmail.com
Site: www.wqhosting.com/~ohpkyle/

Standard tuning (EADGbe)

Legend:

pm... - Palm mute
  x   - Dead note
  ~   - Let ring
  %   - Rest
  /   - Slide up
  \   - Slide down
  h   - Hammer on
 (x)  - Note tied over from previous bar

Chords Used:

   F#5 G#5  A5  B5  D5 D#5  E5  A#5 F5   G5
e|--------------------------------------------|
b|--------------------------------------------|
G|------------------7---8---9-------10---12---|
D|--4---6---7---9---7---8---9---8----x----x---|
A|--4---6---7---9---5---6---7---8----8---10---|
E|--2---4---5---7---------------6-------------|


Intro/Verse:

e|----------------------------|
b|----------------------------|
G|-7--7-x-x-x-x-7-7-----------|
D|-7--7-x-x-x-x-7-7-8-8-7--7--| Guitar 2 plays F5 and G5 octaves while Guitar 1
A|-5--5-x-x-x-x-5-5-8-8-7--7--| plays A#5 and A5, and that's for every time this section is played.
E|------------------6-6-5--5--| 
   Who said anybody likes you? (Likes you.)
   Who said anybody likes you? (Likes you.)
   Who said anybody likes you? Now you'll find out.

   Open minded with an open mouth.
   My throat got tired when the dirt went down.
   Who said anybody likes you? You'll find out.

Pre-Chorus:

e|----------------------------------|
b|----------------------------------|
G|----------------------------------|
D|-4--------6-------7-------9-------|
A|-4--------6-------7-------9-------|
E|-2--------4-------5-------7-------|

   I know you think I don't give a rat's ass cleaning
   Mud off of my name, it's taken longer than I've perceived it.

Verse:

e|----------------------------|
b|----------------------------|
G|-7--7-x-x-x-x-7-7-----------|
D|-7--7-x-x-x-x-7-7-8-8-7--7--|
A|-5--5-x-x-x-x-5-5-8-8-7--7--|
E|------------------6-6-5--5--| 
   Who said anybody likes you? (Likes you.)
   Who said anybody likes you? (Likes you.)
   Who said anybody likes you? Now you'll find out.

   Sugar coated was a tainted pill.
   Easy to swallow, but if fucked my will.
   Who said anybody likes you? You'll find out.

Pre-Chorus:

e|----------------------------------|
b|----------------------------------|
G|----------------------------------|
D|-4--------6-------7-------9-------|
A|-4--------6-------7-------9-------|
E|-2--------4-------5-------7-------|

   I know you think I don't give a rat's ass cleaning
   Mud off of my name, it's taken longer than I've perceived it.

Fill:

e|-------------------------------------------------|
b|-------------------------------------------------|
G|-------------------------------------------------|
D|-4-4-4-4-4-4-6-6-6-6-6-6-7-7-7-7-7-7-9-9-9-9-9-9-|
A|-4-4-4-4-4-4-6-6-6-6-6-6-7-7-7-7-7-7-9-9-9-9-9-9-|
E|-2-2-2-2-2-2-4-4-4-4-4-4-5-5-5-5-5-5-7-7-7-7-7-7-|

   If I never heard about you. If I never heard about you.

e|-------------------------------------------------|
b|-------------------------------------------------|
G|-------------------------------------------------|
D|-4-4-4-4-4-4-6-6-6-6-6-6-7-7-7-7-7-7-7-7-7-7-7-7-|
A|-4-4-4-4-4-4-6-6-6-6-6-6-7-7-7-7-7-7-7-7-7-7-7-7-|
E|-2-2-2-2-2-2-4-4-4-4-4-4-5-5-5-5-5-5-5-5-5-5-5-5-|

   I never.    I never.

Interlude:

e|----------|------------|----------|-7^~~~~~------|
b|----------|------------|----------|-7^~~~~~------|
G|-7--8--9--|-7-7-8-8-9--|-7--8--9--|-7^~~~~~------|
D|-7--8--9--|-7-7-8-8-9--|-7--8--9--|-7^~~~~~------|
A|-5--6--7--|-5-5-6-6-7--|-5--6--7--|-7^~~~~~------|
E|----------|------------|----------|-7^~~~~~------|

e|--------------------------|----------------------------|
b|--------------------------|----------------------------|
G|-7--8--9------------------|-7-7-8-8-9------------------|
D|-7--8--9--x-x-7-7-x-x-7-7-|-7-7-8-8-9--x-x-7-7-x-x-7-7-|
A|-5--6--7--x-x-7-7-x-x-7-7-|-5-5-6-6-7--x-x-7-7-x-x-7-7-|
E|----------x-x-5-5-x-x-5-5-|------------x-x-5-5-x-x-5-5-|

e|--------------------------|----------------------------|
b|--------------------------|----------------------------|
G|-7--8--9------------------|-7-7-8-8-9------------------|
D|-7--8--9--x-x-7-7-x-x-7-7-|-7-7-8-8-9--x-x-7-7-x-x-7-7-|
A|-5--6--7--x-x-7-7-x-x-7-7-|-5-5-6-6-7--x-x-7-7-x-x-7-7-|
E|----------x-x-5-5-x-x-5-5-|------------x-x-5-5-x-x-5-5-|

e|--------------------------|----------------------------|
b|--------------------------|----------------------------|
G|-7--8--9------------------|-7-7-8-8-9------------------|
D|-7--8--9--x-x-7-7-x-x-7-7-|-7-7-8-8-9--x-x-7-7-x-x-7-7-|
A|-5--6--7--x-x-7-7-x-x-7-7-|-5-5-6-6-7--x-x-7-7-x-x-7-7-|
E|----------x-x-5-5-x-x-5-5-|------------x-x-5-5-x-x-5-5-|

e|--------------------------|----------------------------|
b|--------------------------|----------------------------|
G|-7--8--9------------------|-7-7-8-8-9------------------|
D|-7--8--9--x-x-7-7-x-x-7-7-|-7-7-8-8-9--x-x-7-7-x-x-7-7-|
A|-5--6--7--x-x-7-7-x-x-7-7-|-5-5-6-6-7--x-x-7-7-x-x-7-7-|
E|----------x-x-5-5-x-x-5-5-|------------x-x-5-5-x-x-5-5-|

Outro:

e|----------------------------|
b|----------------------------|
G|-7--7-x-x-x-x-7-7-----------|
D|-7--7-x-x-x-x-7-7-8-8-7--7--|
A|-5--5-x-x-x-x-5-5-8-8-7--7--|
E|------------------6-6-5--5--| 
   Who said anybody likes you? (Likes you.)
   Who said anybody likes you? (Likes you.)
   Who said anybody likes you? Now you'll find out.


End with D5.
Tap to rate this tab
 
# A B C D E F G H I J K L M N O P Q R S T U V W X Y Z