Song name
# A B C D E F G H I J K L M N O P Q R S T U V W X Y Z

None The Wiser - Bitter Sweet Song tab

None the Wiser Just got together and has not released their first album yet. I promise 
as lead guitarist of None the Wiser, that when we do release it, You'll love what you 
Sweet is one of our first songs and its easy as hell. Enjoy!

SONG TITLE: Bitter Sweet Song
BAND NAME: None the Wiser
Written by: Jason Meador (Bassist, None the Wiser)

-------------------------------------------------------------------------------
Tabbed by:Elliott
Email: Stiflersez@aol.com

Tuning: Standard

Intro:
e|------------------------------------------------------------------------------|
B|------------------------------------------------------------------------------|
G|------------------------------------------------------------------------------|
D|------------------------------------------------------------------------------|
A|----7----7----9----7----6----6--6--6-----x2------------------------------- ---|
E|----9----8----7----6----4----4--4--6------------------------------------------|

Verse:

e|--------------------------------------------------------|
B|--------------------------------------------------------|
G|--------------------------------------------------------|
D|--------------------------------------------------------|
A|--7--9--7-------6----6--6--6----6-----6--6----------x3--|
E|--------------4----4---------4-----4--------4--6--------|

Chorus (Repeated Strummings):
e|------------------------------------------------------------------------------------|
B|------------------------------------------------------------------------------------|
G|------------------------------------------------------------------------------------|
D|------------------------------------------------------------------------------------|
A|--7----7--------9----7--------6----6-----x2-----------------------------------------|
E|--9----8--------7----6--------4----6------------------------------------------------|

Repeat Verse (x3)

Bridge:
e|-----------------------------------------------------------|
B|-----------------------------------------------------------|
G|-----------------------------------------------------------|
D|-----------------------------------------------------------|
A|--7----7--7----7--9----9--7----7--6----6--6----6--6----x5--|
E|--9----9--8----8--7----7--6----6--4----4--4----4--6--------|

Outro: (slow down on last 8 notes)
e|--------------------------------------------------------|
B|--------------------------------------------------------|
G|--------------------------------------------------------|
D|--------------------------------------------------------|
A|--7--9--7-------6----6--6--6----6-----6--6----------x1--|
E|--------------4----4---------4-----4--------4--6--9-----|


| /  slide up
| \  slide down
| h  hammer-on
| p  pull-off
| ~  vibrato
| +  harmonic
| x  Mute note
===============================================================================
Tap to rate this tab
# A B C D E F G H I J K L M N O P Q R S T U V W X Y Z