Song name
# A B C D E F G H I J K L M N O P Q R S T U V W X Y Z

None - Castle Crashers Theme tab

This song (in acoustic) is played during the xbox live arcade game castle crashers when 
are in the store or the animal house.
on the third line of tab where it goes: 11-11-11-11-11-11, the last five 11's should be 
quickly.
you can go to:
http://www.youtube.com/watch?v=HhQM3Xwvt6A
for an example of this song.

That is NOT my video.

hope you enjoy my first tab!

e|--------------------------6-7s9-8-6-----8-88-8-6--------------------------]
B|-9s11-9s11-9s11----6-7-8-9-----------7v----------9-7-6----6v--------------]
G|-------------------------------------------------------8------------------]
D|--------------------------------------------------------------------------]
A|--------------------------------------------------------------------------]
E|--------------------------------------------------------------------------]

e|--------------------------6-7s9-8-6----8-88-8-6-8-9-----------------------]
B|-9s11-9s11-9s11----6-7-8-9----------7v--------------9-6-------------------]
G|-------------------------------------------------------6------------------]
D|--------------------------------------------------------------------------]
A|--------------------------------------------------------------------------]
E|--------------------------------------------------------------------------]

e|-11s13-1313-13---11-10-11-11-11-11-11-11-11---------------12s14--1414-14--]
B|-----------------------------------------------11-13-14-------------------]
G|-------------------------------------------13-----------------------------]
D|--------------------------------------------------------------------------]
A|--------------------------------------------------------------------------]
E|--------------------------------------------------------------------------]

e|-13-11-9-999--9------------14s16-1616-16-16-14--13--14-141414-14----------]
B|-----------------11-13-14-------------------------------------------------]
G|--------------13----------------------------------------------------------]
D|--------------------------------------------------------------------------]
A|--------------------------------------------------------------------------]
E|--------------------------------------------------------------------------]

e|----------14--------------------------------------------------------------]
B|----13-16----16-13-14-14-1414-14------------------------------------------]
G|-13-----------------------------------------------------------------------]
D|--------------------------------------------------------------------------]
A|--------------------------------------------------------------------------]
E|--------------------------------------------------------------------------]

Rhythm :


intro
e|----4-4---4-4---4-4---4-4-----]
B|----6-6---6-6---6-6---6-6-----]
G|----6-6---6-6---6-6---6-6-----]
D|----6-6---6-6---6-6---6-6-----]
A|--4-----------4---------------]
E|--------4-----------4---------]

repeat 4 times

e|---4-4---4-4---4-4---4-4---4-4---------4-4---4-4----]
B|---6-6---6-6---4-4---4-4---4-4---------6-6---6-6----]
G|---6-6---6-6---5-5---5-5---5-5---------6-6---6-6----]
D|---6-6---6-6---6-6---6-6---6-6---------6-6---6-6----]
A|-4-----------6-----------6-----------4--------------]
E|-------4-----------4-----------4-6-8-------4--------]
Tap to rate this tab
# A B C D E F G H I J K L M N O P Q R S T U V W X Y Z