Song name
# A B C D E F G H I J K L M N O P Q R S T U V W X Y Z

None - Star Spangled Banner tab

This is in standard tuning
and this is my first tab


E-----------------------------------------------------------------------|
A-----------------------------------------------------------------------|
D-----------------------------------------------------------------------|
G------2----------------------------------------------------------------|
B----2---2-------------------------------------2------4----5------------|
E--0------0--------5------9-----7------5--------------------------------|


E-----------------------------------------------------------------------|
A-----------------------------------------------------------------------|
D-----------------------------------------------------------------------|
G----------------------------------------------------2------------------|
B-------------------------------------------5----2----------------------|
E--0--0----9----7----5--4------2--4---5--5------------------------------|


E-----------------------------------------------------------------------|
A-----------------------------------------------------------------------|
D-----------------------------------------------------------------------|
G-----------------------------------------------------------------------|
B-----------------------------------------------------------------------|
E--9---9---10---12---12----10---9--7--9--10--12--10---9---7--5--4---2---|


E-----------------------------------------------------------------------|
A-----------------------------------------------------------------------|
D-----------------------------------------------------------------------|
G----------------------2------------------------------------------------|
B--------------5----2---------------------------------------------------|
E--4---5---5---------------0---5--5--4---2--2--7---5---4----------------|


E-----------------------------------------------------------------------|
A-----------------------------------------------------------------------|
D-----------------------------------------------------------------------|
G-----------------------------------------------------------------------|
B-----------------------------------------------------------------------|
E----0--0---5--7--9--10--12---5---7---9---7----5------------------------|
Tap to rate this tab
# A B C D E F G H I J K L M N O P Q R S T U V W X Y Z