Song name
# A B C D E F G H I J K L M N O P Q R S T U V W X Y Z

Nonpoint - March Of War tab

Nonpoint
March Of War
Tabber: c0z420

Tuning C G C F A D

Intro/Pre-Chorus:
D|------------------------------------------------|
A|------------------------------------------------|
F|------------------------------------------------|
C|------------------------------------------------|
G|------------------------------------------------|
C|-000-00--000-00--000--00------------------------|
pm..........................

Chorus:
D|-----------------------------------------------------------------|
A|-----------------------------------------------------------------|
F|---7-7---10-10----5-5----9-9-------------------------------------|
C|---x-x----x--x----x-x----x-x-------------------------------------|
G|---5-5----8--8----3-3----7-7---1-00--1--00000---1-00--1--00000---|
C|-------------------------------1-00--1--00000---1-00--1--00000---|
pm                                 ..    .......    ...   ........

D|-----------------------------------------------------------------|
A|-----------------------------------------------------------------|
F|---7-7----3--3----5-5----2-2-------------------------------------|
C|---7-7----3--3----5-5----2-2-------------------------------------|
G|---5-5----1--1----3-3----0-0---1-00--1--00000---1-00--1--00000---|
C|-------------------------------1-00--1--00000---1-00--1--00000---|
pm                                 ..    .......    ...   ........

Verse:
D|------------------------------------------------|
A|------------------------------------------------|
F|--10---10/12-9~----8---8/-10---7~---------------|
C|------------------------------------------------|
G|------------------------------------------------|
C|------------------------------------------------|

Bridge: w/ wah
D|---0-~-------------------------------------------|
A|---0-~-------------------------------------------|
F|---3*~-------------------------------------------|
C|---3*~-------------------------------------------|
G|---0-~-------------------------------------------|
C|---0-~-------------------------------------------|

w/phase shifter
D|------------------------------------------------|
A|------------------------------------------------|
F|----------17--17/19-16--16h17--14---------------|
C|--19--21----------------------------------------|
G|------------------------------------------------|
C|------------------------------------------------|

Tap to rate this tab
# A B C D E F G H I J K L M N O P Q R S T U V W X Y Z