Song name
# A B C D E F G H I J K L M N O P Q R S T U V W X Y Z

Nonpoint - In Circles tab

e|---------------------------------------------------------------------------------|
a|---------------------------------------------------------------------------------|
d|-----------------------------------------------------------8---------------------|
g|---------------------------------------------6-7---------------------------------|
b|--0-0-------0-----0-----------6-7------------------------------------------------|
e|--0-0-------0-----0--------------------------------------------------------------|

e|---------------------------------------------------------------------------------|
a|---------------------------------------------------------------------------------|
d|-----------------------------------------------------------5---------------------|
g|---------------------------------------------6-7---------------------------------|
b|--0-0-------0-----0-----------6-7------------------------------------------------|
e|--0-0-------0-----0--------------------------------------------------------------|

e|---------------------------------------------------------------------------------|
a|---------------------------------------------------------------------------------|
d|---------------------------------------------------------------------------------|
g|--5-5-5-6-6-3-3-5-5-1-1-3-3-1-1-1-1-3-3-5-5--------------------------------------|
b|---------------------------------------------------------------------------------|
e|---------------------------------------------------------------------------------|
Tap to rate this tab
# A B C D E F G H I J K L M N O P Q R S T U V W X Y Z