Song name
# A B C D E F G H I J K L M N O P Q R S T U V W X Y Z

Nonpoint - Back Up tab

Band- Nonpoint
Song- Back Up

Tunning: CGCFAD


D------------------------------------------------------------|
A------------------------------------------------------------|
F-----------------------------------8.*----------------------|
C-0--0--0-1-3-1---3X--0--0--0-1-3----------------------------|
G-0--0--0-1-3-1-------0--0--0-1-3----------------------------|
C-0--0--0-1-3-1-------0--0--0-1-3----------------------------|


D------------------------------------------------------------|
A------------------------------------------------------------|
F-----------------------------------7.*----------------------|
C-0--0--0-1-3-1---3X--0--0--0-1-3----------------------------|
G-0--0--0-1-3-1-------0--0--0-1-3----------------------------|
C-0--0--0-1-3-1-------0--0--0-1-3----------------------------|


D------------------------------|
A------------------------------|
F-5h7-5h7p5----5h7p5 ----------|4x
C---------- 3~ ----------------|
G------------------------------|
C------------------------------|

D-------------------------------------------|
A-------------------------------------------|
F-------------0--0--------------0---0-------|4x
C-5--3--2--0--2--0--5--2--3--0--0-2-0-------|
G-5--3--2--0--------5--2--3--0--------------|
C-5--3--2--0--------5--2--3--0--------------|
Tap to rate this tab
# A B C D E F G H I J K L M N O P Q R S T U V W X Y Z