Song name
# A B C D E F G H I J K L M N O P Q R S T U V W X Y Z

Nonpoint - Alive And Kicking Acoustic tab

-------------------------------------------------------------------------------
			     Alive and Kicking - Acoustic - NonPoint
-------------------------------------------------------------------------------
This is not the whole song. There are some little things that the guitarist does 
that I can not seem to figure out quite yet but here is the Intro - Verse- and Chorus.

Tabbed by: Ian
Email: ssj10hey@hotmail.com

Tuning: Drop C Tuning CGCFAD

 Intro & Verse - Played until the chorus
e|--------0---------------0--------------------------------------------------|
B|----3---------3-----3----------3-----------------5-------------------------|
G|--4---4-----4---------4-------4------6---7---6-------6---7---6---6---------|
D|------------------5----------------7---7-------7-------7-------7-----------|
A|---------------------------------------------------------------------------|
E|---------------------------------------------------------------------------|

 Chorus
e|---0-------------------0---------------------------------------------------|
B|---3-------------------5---------------------------------------------------|
G|---4-------------------6---------------------------------------------------|
D|---5-------------------7---------------------------------------------------|
A|---5-------------------7---------------------------------------------------|
E|---x-------------------x---------------------------------------------------|
"Soo I'm tearing this.. what I wanna do



| /  slide up
| \  slide down
| h  hammer-on
| p  pull-off
| ~  vibrato
| +  harmonic
| x  Mute note
===============================================================================
Tap to rate this tab
# A B C D E F G H I J K L M N O P Q R S T U V W X Y Z