Song name
# A B C D E F G H I J K L M N O P Q R S T U V W X Y Z

Nonpoint - Past It All Acoustic tab

Nonpoint - Past it all Tab (Acoustic)

It's Tuned in Drop C

Intro and Verse:

D|-----0--------0-------0------|
A|--1—---1---3----3--3----3----|
F|--2--------2-----------------|
C|--2--------2-----------------|
G|--0--------0-----------------|
C|-----------------------------|

D|-----0--------0-------0------|
A|--0—---0---0----0--0----0----|
F|--1--------2-----------------|
C|--2--------3-----------------|
G|--2--------3-----------------|
C|-----------------------------|	

Refrain 1: Strumming (Figure out the right tempo)

D|-----------------------------|
A|--3—-3--1--1--1--0--1--1--1--|
F|--2--2--2--2--2--2--0--0--0--|
C|--2--2--2--2--2--2--2--2--2--|
G|--0--0--0--0--2--2--3--3--3--|
C|-----------------------------|

Past all...we wasted  I saw the end

D|------------------------------|
A|--3—-3--1--1--1--0--1--1--0--0|
F|--2--2--2--2--2--2--0--0--1--1|
C|--2--2--2--2--2--2--2--2--2--2|
G|--0--0--0--0--2--2--3--3--2--2|
C|------------------------------|

This wasn’t...said it would be when I...

D|-----------------------------|
A|--3—-3--1--1--1--0--1--1--1--|
F|--2--2--2--2--2--2--0--0--0--|
C|--2--2--2--2--2--2--2--2--2--|
G|--0--0--0--0--2--2--3--3--3--|
C|-----------------------------|

Heard the words...began Past it all...

D|------------------------------|
A|--3—-3--1--1--1--0--1--1--0--0|
F|--2--2--2--2--2--2--0--0--1--1|let it ring and go back to the verse tab
C|--2--2--2--2--2--2--2--2--2--2|
G|--0--0--0--0--2--2--3--3--2--2|
C|------------------------------|

This wasn’t...said it would be when I got...


Refrain 2 with Bridge (play after 2nd verse):

D|-----------------------------|
A|--3—-3--1--1--1--0--1--1--1--|
F|--2--2--2--2--2--2--0--0--0--|
C|--2--2--2--2--2--2--2--2--2--|
G|--0--0--0--0--2--2--3--3--3--|
C|-----------------------------|

Past all...we wasted  I saw the end

D|--------------------------------|
A|--3—-3--1--1--1--0--1--1--0--0--|
F|--2--2--2--2--2--2--0--0--1--1--|
C|--2--2--2--2--2--2--2--2--2--2--|
G|--0--0--0--0--2--2--3--3--2--2--|
C|--------------------------------|

This wasn’t...said it would be when I...

D|-----------------------------|
A|--3—-3--1--1--1--0--1--1--1--|
F|--2--2--2--2--2--2--0--0--0--|
C|--2--2--2--2--2--2--2--2--2--|
G|--0--0--0--0--2--2--3--3--3--|
C|-----------------------------|

Heard the words...began Past it all...

D|--------------------------------------------|
A|--3—-3--1--1--1--0--1--1--0--0--0--0--6--8--|
F|--2--2--2--2--2--2--0--0--1--1--1--1--5--7--|
C|--2--2--2--2--2--2--2--2--2--2--2--2--3--5--|
G|--0--0--0--0--2--2--3--3--2--2--2--2--3--5--|
C|--------------------------------------3--5--|

This wasn’t...said it would be when I got there

D|-----------------------------------|
A|--0--0--0--0--0--0--0--6--6--8--8--|
F|--1--1--1--1--1--1--1--5--5--7--7--| Repeat 4x
C|--2--2--2--2--2--2--2--3--3--5--5--|
G|--2--2--2--2--2--2--2--3--3--5--5--|
C|-----------------------3--3--5--5--|

When I got when I got there..


Refrain 1 again: Strumming

D|-----------------------------|
A|--3—-3--1--1--1--0--1--1--1--|
F|--2--2--2--2--2--2--0--0--0--|
C|--2--2--2--2--2--2--2--2--2--|
G|--0--0--0--0--2--2--3--3--3--|
C|-----------------------------|

Past all...we wasted  I saw the end

D|------------------------------|
A|--3—-3--1--1--1--0--1--1--0--0|
F|--2--2--2--2--2--2--0--0--1--1|
C|--2--2--2--2--2--2--2--2--2--2|
G|--0--0--0--0--2--2--3--3--2--2|
C|------------------------------|

This wasn’t...said it would be when I...

D|-----------------------------|
A|--3—-3--1--1--1--0--1--1--1--|
F|--2--2--2--2--2--2--0--0--0--|
C|--2--2--2--2--2--2--2--2--2--|
G|--0--0--0--0--2--2--3--3--3--|
C|-----------------------------|

Heard the words...began Past it all...

D|------------------------------|
A|--3—-3--1--1--1--0--1--1--0--0|
F|--2--2--2--2--2--2--0--0--1--1|let it ring
C|--2--2--2--2--2--2--2--2--2--2|
G|--0--0--0--0--2--2--3--3--2--2|
C|------------------------------|

This wasn’t...said it would be when I got...
Tap to rate this tab
# A B C D E F G H I J K L M N O P Q R S T U V W X Y Z