Song name
# A B C D E F G H I J K L M N O P Q R S T U V W X Y Z

Nonpoint - Bring Me Down tab

----------------------------------------------------------------------------
			     Bring Me Down - Nonpoint
----------------------------------------------------------------------------

Tabbed by:Gospurs96
Email:Futureqb@hotmail.com

Tuning:CGCFAD- Drop C          *=pinch harmonic  ^ = bend

                       Intro/Chorus
D|--------------------------------------------------------------------------|
A|--------------------------------------------------------------------------|
F|--------------------------------------------------------------------------|
C|--------3-0---------------------------------5-3-0-------------------------|
G|----3-0----------0-3-0---6-5*---0-3-0-3-5---5-3-0-------------------------|
C|--------------------------------------------5-3-0-------------------------|

D|--------------------------------------------------------------------------|
A|--------------------------------------------------------------------------|
F|--------------------------------------------------------------------------|
C|--------3-0---------------------------------5-3-0-----5*^--3-0------------|
G|----3-0----------0-3-0---6-5*---0-3-0-3-5---5-3-0-------------------------|
C|--------------------------------------------5-3-0-------------------------|

D|--------------------------------------------------------------------------|
A|--------------------------------------------------------------------------|
F|--------------------------------------------------------------------------|
C|--------3-0---------------------------------5-3-0-------------------------|
G|----3-0---------0-3-0----6-5*---0-3-0-3-5---5-3-0-------------------------|
C|--------------------------------------------5-3-0-------------------------|

D|--------------------------------------------------------------------------|
A|--------------------------------------------------------------------------|
F|--------------------------------------------------------------------------|
C|--------3-0---------------------------------5-3-0-----5*^--3-0------------|
G|----3-0----------0-3-0---6-5*---0-3-0-3-5---5-3-0-------------------------|
C|--------------------------------------------5-3-0-------------------------|

D|--------------------------------------------------------------------------|
A|--------------------------------------------------------------------------|
F|--------------------------------------------------------------------------|
C|--------3-0---------------------------------5-3-0-------------------------|
G|----3-0---------0-3-0----6-5*---0-3-0-3-5---5-3-0-------------------------|
C|--------------------------------------------5-3-0-------------------------|

                             Verse
C|--------------------------------------------------------------------------|
A|--------------------------------------------------------------------------|
F|----------------------------------------------------Repeat-----3rd time --|
C|--1-1------1-1--1-1--1-1---0-0------0-0--0-0--0-0-----x2-------add-palm---|
G|--1-1--6*--1-1--1-1--1-1---0-0--5*--0-0--0-0--0-0----------------mutes----|
C|--1-1------1-1--1-1--1-1---0-0------0-0--0-0--0-0-------------------------|
      x                        x

| /  slide up
| \  slide down
| h  hammer-on
| p  pull-off
| ~  vibrato
| +  harmonic
| x  Mute note
===============================================================================
Tap to rate this tab
# A B C D E F G H I J K L M N O P Q R S T U V W X Y Z