Song name
# A B C D E F G H I J K L M N O P Q R S T U V W X Y Z

Nonpoint - Everybody Down tab

Everybody Down - Nonpoint
Album : Vengeance

Tabbed by : Fabianos & Malthe

Hey! this is our try on Everybody down, since there were no tabs for it...
This is not finished, but i will finish it up later, we are about 95% sure on this.
Enjoy! :-D

Intro  (tremolo picked)
d|------------------------------------------------------------------------|
A|------------------------------------------------------------------------|
F|------------------------------------------------------------------------|
C|------------------------------------------------------------------------|
G|------------------------------------------------------------------------|
C|00000----33333----1010101010----66666-----------------------------------|
                     ^ten's

d|------------------------------------------------------------------------|
A|------------------------------------------------------------------------|
F|------------------------------------------------------------------------|
C|------------------------------------------------------------------------|
G|------------------------------------------------------------------------|
C|00000----33333----1010101010----66666x alot!----------------------------|
                     ^ten's

Verse:
d|-----------------------------------------------------------------------|
A|-----------------------------------------------------------------------|
F|-----------------------------------------------------------------------|
C|--------0------------0------------0------------------------------------|
G|0-0-0-0-0----0-0-0-0-0----0-0-0-0-0----------0------0------------------|
C|0-0-0-0-0----0-0-0-0-0----0-0-0-0-0----0-5b6-0--5b6-0------------------|x2
  . . . .      . . . .      . . . .      

Prechorus:
d|-----------------------------------------------------------------------|
A|-----------------------------------------------------------------------|
F|-----------------------------------------------------------------------|
C|--------------3b-------------------------------------------------------|
G|0-0--3b--0-0-----------------------------------------------------------|
C|0-0------0-0-----------------------------------------------------------|


Chorus:
d|-----------------------------------------------------------------------|
A|-----------------------------------------------------------------------|
F|-----------------------------------------------------------------------|
C|0-0-0-12---0-0-0-12---3-3-3-3-3-3-3-3--5-5-5-5-1-1-1-1-----------------|
G|0-0-0-12---0-0-0-12---3-3-3-3-3-3-3-3--5-5-5-5-1-1-1-1-----------------|
C|0-0-0-12---0-0-0-12---3-3-3-3-3-3-3-3--5-5-5-5-1-1-1-1-----------------|x4
        ^  let ring ^  
        ^  Twelve's ^                           
Tap to rate this tab
 
# A B C D E F G H I J K L M N O P Q R S T U V W X Y Z