Song name
# A B C D E F G H I J K L M N O P Q R S T U V W X Y Z

Nonpoint - Left For You tab

Nonpoint: Left For You

Transcribed by: mysticguitar77

YouTube Username: MysticGuitar77

Date last modified: September 7, 2012

Tuning: Drop C (C,G,C,F,A,D)

Notes: Fun song to play and pretty sure this is close. I'll make adjustments
later on if need be, but this is the newest Nonpoint single and it'll be on
their upcoming new self-titled album due out in October. I didn't learn the
2nd guitar parts yet and it only plays something different during the bridge
but most of the time it just follows the lead guitar through most of the song. Enjoy!

Riff 1 (heavy distortion and fuzz)
D|-------------------------------------------|
A|-------------------------------------------|
F|-------------------------------------------|
C|---------------------------------------0-0-|
G|---------------------------------------0-0-|
C|-0--0-1-3-1-0--0-1-3-1-0--0-1-3-1-0--0-0-0-|
                                         * *

Riff 2
D|---------------------------------------------------------------|
A|---------------------------------------------------------------|
F|---------------3---5----------------3---5----------------3---5-|
C|-0--0-1-3-1-0--3---5--0--0-1-3-1-0--3---5--0--0-1-3-1-0--3---5-|
G|-0--0-1-3-1-0--1---3--0--0-1-3-1-0--1---3--0--0-1-3-1-0--1---3-|
C|-0--0-1-3-1-0----0----0--0-1-3-1-0----0----0--0-1-3-1-0----0---|

D|-----------------------------|
A|-----------------------------|
F|-3-3--3--3--3----------------|
C|-2-2--2--2--2----------------|
G|-1-1--1--1--1----------------|
C|---------------3-3-0-3-5-3-0-|

Riff 3   "I don't think I have the answers that you're looking for..."
D|------------------------------------------------------------|
A|------------------------------------------------------------|
F|------------------------------------------------------------|
C|------------------------------------------------------------|
G|---------3h5p3p0-----3-----5~----------3h5p3p0-----5-----3~-|
C|-0-0-0-0---------0-0---0-0-----0-0-0-0---------0-0---0-0----|
   * * * *         * *   * *     * * * *         * *   * *

D|------------------------------------------------------------|
A|------------------------------------------------------------|
F|------------------------------------------------------------|
C|---------------------3-----5~--------------------------3----|
G|---------3h5p3p0-----------------------1-1---------3-----5~-|
C|-0-0-0-0---------0-0---0-0-----1-1-1-1-----1-1/3-3---3------|
   * * * *         * *   * *

Play Riff 3 x2

Riff 3a  "I can't do this with you anymore..."
D|-------------------|
A|-------------------|
F|-8-8-8-8-8-8-8-8-8-|
C|-x-x-x-x-x-x-x-x-x-|
G|-6-6-6-6-6-6-6-6-6-|
C|-------------------|

Riff 4   "Is there anything left for you..."
D|-----------------------------------------------|
A|-----------------------------------------------|
F|---5/7---7-7---5-5-5-5-5-5-5-5-5-5-5-5-5-5-5---|
C|---5/7---7-7---3-3-3-3-3-3-3-3-3-3-3-3-3-3-3---|
G|-0-3/5-0-5-5-0-3-3-3-3-3-3-3-3-3-3-3-3-3-3-3-0-|
C|-0-----0-----0-3-3-3-3-3-3-3-3-3-3-3-3-3-3-3-0-|

D|-------------------------------------------------------------|
A|-------------------------------------------------------------|
F|---------------------------------3-3--3--3--3----------------|
C|-3/5-5-5-5-5-3/5-5-5-5-5-3-5-3-0-2-2--2--2--2----------------|
G|-3/5-5-5-5-5-3/5-5-5-5-5-3-5-3-0-1-1--1--1--1----------------|
C|-3/5-5-5-5-5-3/5-5-5-5-5-3-5-3-0---------------3-3-0-3-5-3-0-|

D|-----------------------------------------------|
A|-----------------------------------------------|
F|---5/7---7-7---5-5-5-5-5-5-5-5-5-5-5-5-5-5-5---|
C|---5/7---7-7---3-3-3-3-3-3-3-3-3-3-3-3-3-3-3---|
G|-0-3/5-0-5-5-0-3-3-3-3-3-3-3-3-3-3-3-3-3-3-3-0-|
C|-0-----0-----0-3-3-3-3-3-3-3-3-3-3-3-3-3-3-3-0-|

D|---------------------------------------------------------------|
A|---------------------------------------------------------------|
F|---------------------------------3-3-3-3-3-3-3/5-5-5-5-5-5-5-5-|
C|-3/5-5-5-5-5-3/5-5-5-5-5-3-5-3-0-3-3-3-3-3-3-3/5-5-5-5-5-5-5-5-|
G|-3/5-5-5-5-5-3/5-5-5-5-5-3-5-3-0-1-1-1-1-1-1-1/3-3-3-3-3-3-3-3-|
C|-3/5-5-5-5-5-3/5-5-5-5-5-3-5-3-0-------------------------------|

Play Riff 2
Play Riff 3 x2   "I was trying everything I could to understand..."
Play Riff 3a
Play Riff 4      "There isn't anything left for you..."

Fill w/ phaser and wah
D|---------------------------------|
A|---------------------------------|
F|-7-7-7-7-7-7-7-7-7-7-7-7-7-7-7-7-|
C|-x-x-x-x-x-x-x-x-x-x-x-x-x-x-x-x-|
G|-5-5-5-5-5-5-5-5-5-5-5-5-5-5-5-5-|
C|---------------------------------|

Riff 5 w/ phaser and wah
D|-------------------------------------------------------|
A|-------------------------------------------------------|
F|-14-14-14-14---14-14-14-14-14-14-14-14-14-14-14-14-14\-|
C|-x--x--x--x--x-x--x--x--x--x--x--x--x--x--x--x--x--x---|
G|-12-12-12-12-x-12-12-12-12-12-12-12-12-12-12-12-12-12\-|
C|-------------------------------------------------------|

D|--------------------------------------------------------------------------|
A|--------------------------------------------------------------------------|
F|-9-9--9-9-9-9-9-9-9-9-9-9-9-9/10-10-10--10-10-10-10-10-10-10-10-10-10-10\-|
C|-x-x--x-x-x-x-x-x-x-x-x-x-x-x-x--x--x---x--x--x--x--x--x--x--x--x--x--x---|
G|-7-7--7-7-7-7-7-7-7-7-7-7-7-7/8--8--8---8--8--8--8--8--8--8--8--8--8--8\\-|
C|--------------------------------------------------------------------------|

D|---------------------------------|
A|---------------------------------|
F|-9-9--9-9-9-9-9-9-9--------------|
C|-x-x--x-x-x-x-x-x-x-----1------1-|
G|-7-7--7-7-7-7-7-7-7-0-0-1--0-0-1-|
C|--------------------0-0-1--0-0-1-|
                      * *    * *

Riff 6   "I try to keep us together..."
D|-------------------------------------------------------------------|
A|-------------------------------------------------------------------|
F|-------------------------------------------------------------------|
C|-7-7-7-7--7-7-7-7-7-7-7-7-7-7-7-7-7-7-7-7--7-7-7-7-7-7-7-7-7-7-7-7-|
G|-5-5-5-5--5-5-5-5-5-5-5-5-5-5-5-5-5\3-3-3--3-3-3-3-3-3-3-3-3-3-3-3-|
C|-------------------------------------------------------------------|

D|-----------------------------------------------------------------|
A|-----------------------------------------------------------------|
F|-------------------------------------3-3-3--3-3-3-3/5-5-5--5-5-5-|
C|-------------------------------------3-3-3--3-3-3-3/5-5-5--5-5-5-|
G|-5-5-5-5--5-5-5-5-5-5-5-5-5-5-5-5-5\-1-1-1--1-1-1-1/3-3-3--3-3-3-|
C|-5-5-5-5--5-5-5-5-5-5-5-5-5-5-5-5-5\-----------------------------|

Riff 7
D|-----------------------------|
A|-----------------------------|
F|-----------------------------|
C|-1-1--1--1--1--3-2-0-5-3-2-3-|
G|-1-1--1--1--1----------------|
C|-1-1--1--1--1----------------|

Play Riff 7 x3 then:
D|----------------------|
A|----------------------|
F|----------------------|
C|-1-1--1--1----1--3----|
G|-1-1--1--1--0-1--3----|
C|-1-1--1--1--0-1--3----|
              *

Play Riff 4   "Is there anything left for you..."

Riff 4 alteration (played right when this riff kicks in)
D|------------|
A|------------|
F|---5/7---7\-|
C|---5/7---7\-|
G|-0-3/5-0-5\-|
C|-0-----0----|

The rest of the time, it's played the same as Riff 4.

Play Riff 6

Riff 6 ending alteration (1st time through)
D|-------------------------------|
A|-------------------------------|
F|-------------------------------|
C|-1-1-1-1--------------1------1-|
G|-1-1-1-1--1-1-1-1-0-0-1--0-0-1-|
C|-1-1-1-1--1-1-1-1-0-0-1--0-0-1-|
                    * *    * *

Play Riff 6

Riff 6 ending alteration (2nd time through)
D|-----------------------------------|
A|-----------------------------------|
F|-3-3-3-3-3-3-3-3--/5-5-5-5-5-5-5-5-|
C|-3-3-3-3-3-3-3-3--/5-5-5-5-5-5-5-5-|
G|-1-1-1-1-1-1-1-1--/3-3-3-3-3-3-3-3-|
C|-----------------------------------|

Play Riff 2

Riff 2 ending alteration
D|-----------------------------|
A|-----------------------------|
F|-3-3--3--3--3----------------|
C|-2-2--2--2--2--3-2-0-5-3-2-3-|
G|-1-1--1--1--1----------------|
C|-----------------------------|

Notes: A lot of alterations when you get to the bridge parts, so just listen
to the song to get the feel of them.
Tap to rate this tab
# A B C D E F G H I J K L M N O P Q R S T U V W X Y Z