Song name
# A B C D E F G H I J K L M N O P Q R S T U V W X Y Z

Nonpoint - To The Pain tab

Nonpoint: To The Pain

Transcribed by: mysticguitar77

YouTube Username: MysticGuitar77

Date last modified: July 18, 2013

Tuning: Drop A# (A#,F,A#,D#,G,C)

Riff 1
 C|-----------------------------|
 G|-----------------8-8-----6-6-|
D#|-------9-9-------5-5-----5-5-|
A#|-------7-7-------7-7-----7-7-|
 F|-0-0-0-8-8-0-0-0-----0-0-----|
A#|-0-0-0-----0-0-0-----0-0-----|
    * * *     * * *     * *
                      ^ ends here final time through and end with a big
                        down slide

Play Riff 1 x4

Riff 2   "Take me to the pain..."
 C|------------------10\----------------------10----11p10-----|
 G|------------------10\-------------------------10-------10\-|
D#|-----------------------------------------------------------|
A#|-----------------------------------------------------------|
 F|---------------------------------------0-0-----------------|
A#|-000-000-000-000-------000-000-000-000-0-0-----------------|
    *** *** *** **        *** *** *** *** * *

 C|------------------12--------------------------------|
 G|------------------15b17-----------------8-8-----6-6-|
D#|------------------------------9-9-------5-5-----5-5-|
A#|------------------------------7-7-------7-7-----7-7-|
 F|------------------------0-0-0-8-8-0-0-0-----0-0-----|
A#|-000-000-000-000--------0-0-0-----0-0-0-----0-0-----|
    *** *** *** **         * * *     * * *     * *

Riff 3   "Life sums up in three words..."
 C|-------------------------------------------------10-----10-|
 G|-------------------------------------------------10-----10-|
D#|-----------------------------------------------------------|
A#|-----------------------------------------------------------|
 F|---------------------------------------------0-0----0-0----|
A#|-000-000-000-0-0-0-0-000-000-000-000-000-000-0-0----0-0----|
    *** *** *** *     * *** *** *** *** *** *** * *    * *

 C|---------------------------------------------------------|
 G|---------------------------------------------8-8-----6-6-|
D#|-----------------------------------9-9-------5-5-----5-5-|
A#|-----------------------------------7-7-------7-7-----7-7-|
 F|-----------------------------0-0-0-8-8-0-0-0-----0-0-----|
A#|-000-000-000-0-0-0-0-000-000-0-0-0-----0-0-0-----0-0-----|
    *** *** *** *     * *** *** * * *     * * *     * *

Play Riff 2 x1   "The lies that consume you..."

Riff 4   "...the pain goes away..."
 C|-----------------------------------------------------|
 G|---------------------------5--5--5~------------------|
D#|-9--9--9~------------------0--0--0~------------------|
A#|-7--7--7~------------------2--2--2~------------------|
 F|-8--8--8~----5p3p0h3-5/8\7-3--3--3~----5p3p0h3-5/8\5-|
A#|-----------------------------------------------------|
                                    ^ ends here final time through

Play Riff 4 x2   "You have to get through it somehow..." 
                  (enter the chorus with a big slide down)

Riff 5   "I'm on the ground with 110 men..."
 C|--------------------------------------------------|
 G|--------------------------------------------------|
D#|--------------------------7-7-7-7-7/14-14--14-14b-|
A#|-7-\-3--5-\-2--2-3-0-0--0-x-x-x-x-x-x--x---x--x---|
 F|-7-\-3--5-\-2--2-3-0-0--0-5-5-5-5-5/12-12--12-12b-|
A#|-7-\-3--5-\-2--2-3-0-0--0-------------------------|

 C|------------------------------------|
 G|------------------------------------|
D#|--------------------------7-7-7-7-7-|
A#|-7-\-3--5-\-2--2-3-0-0--0-x-x-x-x-x-|
 F|-7-\-3--5-\-2--2-3-0-0--0-5-5-5-5-5-|
A#|-7-\-3--5-\-2--2-3-0-0--0-----------|
               ^ ends here final time through with big down slide

Play Riff 5 x2   "I shake off most of them..."
Play Riff 2 x1   "Straight back to the pain..."
Play Riff 3 x1   "Forget about taking though..."
Play Riff 2 x1   "Straight back to the pain..."
Play Riff 4 x2   "Then you're forcing me to suffer you..."
Play Riff 5 x2   "I'm on the ground with 110 men..."
Play Riff 1 x1

Fill 1
 C|-------------------------|
 G|----------------5--5--5~-|
D#|-9--9--9~-------0--0--0~-|
A#|-7--7--7~-------2--2--2~-|
 F|-8--8--8~-------3--3--3~-|
A#|-------------------------|

Riff 6 (clean, let all notes ring out)
 C|-----------------------------|
 G|---------------------------5-|
D#|--------9------------------0-|
A#|-----7------------------2--2-|
 F|-/8--------------0-h-3-------|
A#|-----------------------------|

Play Riff 6 x2   (most of what you hear during this part is
                  actually the bass not guitar. The guitar just accents
                  what the bass is doing)

Riff 7 (clean, let all notes ring out)
 C|----7-----7h8--7\-------------0-------|
 G|-8-----8-------------------3-----3--1-|
D#|------------------------2-------------|
A#|--------------------------------------|
 F|--------------------------------------|
A#|--------------------------------------|

 C|----7-----7h8--7--------------0-------|
 G|-8-----8----------8\-------3-----3--1-|
D#|------------------------2-------------|
A#|--------------------------------------|
 F|--------------------------------------|
A#|--------------------------------------|

Play Riff 7 x2
Play Fill 1 x2   "It feels so good at last..."
Play Riff 5 x2   "I'm on the ground with 110 men..."
Play Riff 1 x2

Riff 8   "Pain!!"
 C|-----------------10\-----------------11p10-----|
 G|-----------------10\-----------------------10\-|
D#|-----------------------------------------------|
A#|-----------------------------------------------|
 F|-----------------------------------------------|
A#|-000-000-000-000-----000-000-000-000-----------|
    *** *** *** **      *** *** *** **

 C|-----------------12------------------------10-----10-|
 G|-----------------15b17---------------------10-----10-|
D#|-----------------------------------------------------|
A#|-----------------------------------------------------|
 F|---------------------------------------0-0----0-0----|
A#|-000-000-000-000-------000-000-000-000-0-0----0-0----|
    *** *** *** **        *** *** *** *** * *    * *

Play Riff 8 x2   "Pain!!"
Play Riff 6 x3   (distorted this time)

Enjoy!!
Tap to rate this tab
# A B C D E F G H I J K L M N O P Q R S T U V W X Y Z