Song name
# A B C D E F G H I J K L M N O P Q R S T U V W X Y Z

Nonpoint - Alive And Kicking tab

Nonpoint: Alive And Kicking

Transcribed by: mysticguitar77

YouTube Username: MysticGuitar77

Date last modified: November 14, 2013

Tuning: Drop A# (A#,F,A#,D#,G,C)

Riff 1 (clean w/ delay)
 C|--------------------------------------|
 G|--------------------------------------|
D#|-10--10----12--12----9-9--9----9\7--7-|
A#|--------------------------------------|
 F|--------------------------------------|
A#|--------------------------------------|

Play Riff 1 x3   "I'm getting over it pushing past..."

Riff 2   "It's where the heart was living till..."
 C|------------------------------------------|
 G|------------------------------------------|
D#|-10--10\----12--12\----9-9--9\----9\7--7\-|
A#|------------------------------------------|
 F|------------------------------------------|
A#|------------------------------------------|

Play Riff 2 x2   "By just packing up and moving out..."

Riff 3   "So, I'm tearing this and everything else..."
 C|---------------------------------------------------------------|
 G|---------------------------------------------------------------|
D#|--------------------------5------------------------------------|
A#|----------------------5h7---7p5---------------5----------------|
 F|--------------------------------8-------------3----4-4-5-5-6-6-|
A#|-0-0--0--0-0-0--0-7-0-------------0-0--0--0-0----0-4-4-5-5-6-6-|

 C|--------------------------5------------------------------------|
 G|----------------------5h6---6p5--------------------------------|
D#|--------------------------------7------------------------------|
A#|----------------------------------------------5----------------|
 F|----------------------------------------------3----4-4-5-5-6-6-|
A#|-0-0--0--0-0-0--0-7-0-------------0-0--0--0-0----0-4-4-5-5-6-6-|

Riff 4   "I'm stronger now even after everything that you did..."
 C|--------------------------------------|
 G|--------------------------------------|
D#|-7-/-10-10--10--10-10--10--10-10-10---|
A#|-x---x--x---x---x--x---x---x--x--x----|
 F|-5-/-8--8---8---8--8---8---8--8--8----|
A#|-0---0--0---0---0--0---0---0--0--0--0-|

 C|-----------------------------------------------|
 G|-----------------------------------------------|
D#|-------------------------10-10-9-9-----7-7-7-7-|
A#|-3-3-3-3-3-3-3-3/7-7-7-7-7--7--7-7-----x-x-x-x-|
 F|-3-3-3-3-3-3-3-3/7-7-7-7-7--7--7-7-0-0-5-5-5-5-|
A#|-3-3-3-3-3-3-3-3/7-7-7-7-7--7--7-7-0-0---------|

 C|-----------------------------------------------------------|
 G|-----------------------------------------------------------|
D#|-----------------------------------------------------------|
A#|-7-7-7/10-10-10-10-10-10\7-3-3-3-3-3-3-3-3-1-1-1-1-1/3-3-3-|
 F|-7-7-7/8--8--8--8--8--8\\7-3-3-3-3-3-3-3-3-1-1-1-1-1/3-3-3-|
A#|-7-7-7/8--8--8--8--8--8\\7-3-3-3-3-3-3-3-3-1-1-1-1-1/3-3-3-|

Play Riff 4 x2   "I'm stronger now..."

Fill
 C|---------------------------------------------------------------|
 G|---------------------------------------------------------------|
D#|-------------------------------------------------------5-------|
A#|-------------5-------------------------------------5h7---7p5---|
 F|-------------3----4-4-5-5-6-6--------------------------------8-|
A#|-0-0--0--0-0----0-4-4-5-5-6-6-0-0--0--0-0-0--0-7-0-------------|

 C|-----------3*~---------|
 G|-----------3*~---------|
D#|-----------3*~---------|
A#|-0~--------------------|
 F|-0~--------------------|
A#|-0~--------------------|

Play Riff 1 x3   "Now if you would've waited one second..."
Play Riff 2 x1   "You had it all, you chose to abuse it..."
Play Riff 3 x1   "So, I'm tearing this and everything else..."
Play Riff 4 x2   "I'm stronger now..."

Riff 5
 C|-----------------------------------------------|
 G|-----------------------------------------------|
D#|-----------------------------------------------|
A#|-----------------0-1-3-1-----------------1-3-0-|
 F|---3-----5-----6-0-1-3-1---3-----5-----6-1-3-0-|
A#|-0---4/5---5/6---0-1-3-1-0---4/5---5/6---1-3-0-| 

Play Riff 5 x6   "What's wrong with me..."

Fill
 C|----------------------------------|
 G|----------------------------------|
D#|--------------------------5-------|
A#|----------------------5h7---7p5---|
 F|--------------------------------8-|
A#|-0-0--0--0-0-0--0-7-0-------------|

Play Riff 4 x2   "I'm stronger now..."
Play Riff 3 x1   "And now I see everything in front of me now..."

Ending
 C|------------------------------|
 G|------------------------------|
D#|-------------------5----------|
A#|---------------5-7---7-5----0-|
 F|-------------------------8b-0-|
A#|-0-0--0--0-0-0--------------0-|

Enjoy!!
Tap to rate this tab
 
# A B C D E F G H I J K L M N O P Q R S T U V W X Y Z