Song name
# A B C D E F G H I J K L M N O P Q R S T U V W X Y Z

Nonpoint - Wrong Before tab

Nonpoint: Wrong Before

Transcribed by: mysticguitar77

YouTube Username: MysticGuitar77

Date last modified: November 16, 2013

Tuning: Drop A# (A#,F,A#,D#,G,C)

Riff 1 (let all notes/chords ring out)
 C|------------------------------------------|
 G|------------------------------------------|
D#|------------------------------------------|
A#|----2-----3-----3------2-----3-----3------|
 F|-0-----0-----7----7-0-----0-----7----7-7~-|
A#|---------------------------------------6~-|

 C|----------------------------------------------------------------|
 G|-8--8/10~----------8-10-10/12-10-8-8/10-8-5/8--5/8--5-----------|
D#|-------------9~---------------------------------------/7~----4~-|
A#|----------------------------------------------------------------|
 F|----------------------------------------------------------------|
A#|----------------------------------------------------------------|

Riff 2   "The world can be wrong today for once..."
 C|-0--0--0--0--0--0--0--0--0--0--0--0--0--0--0--0--|
 G|-10-10-10-10-10-10-10-10-10-10-10-10-10-10-10-10-|
D#|-9--9--9--9--9--9--9--9--9--9--9--9--9--9--9--9--|
A#|-------------------------------------------------|
 F|-------------------------------------------------|
A#|-------------------------------------------------|

 C|-0-0-0-0-0-0-0-0-0-0-0-0-0-0-0-0-0-0-0-0-0-0-0-0-0-0-0-0-0-0-0-0-|
 G|-9-9-9-9-9-9-9-9-9-9-9-9-9-9-9-9-8-8-8-8-8-8-8-8-8-8-8-8-8-8-8-8-|
D#|-9-9-9-9-9-9-9-9-9-9-9-9-9-9-9-9-9-9-9-9-9-9-9-9-9-9-9-9-9-9-9-9-|
A#|-----------------------------------------------------------------|
 F|-----------------------------------------------------------------|
A#|-----------------------------------------------------------------|

 C|---------------------------------|
 G|---------------------------------|
D#|---------------------------------|
A#|---------------------------------|
 F|-4-4-4-4-5-5-5-5-6-6-6-6-7-7-7-7-|
A#|-4-4-4-4-4-4-4-4-4-4-4-4-4-4-4-4-|

Play Riff 2 x2   "The world can be wrong today for once..."
                  (the ending of Riff 2 gets played twice last time through)
Play Riff 1 x1   "Things don't always have to go my way..."
Play Riff 2 x2   "The world can be wrong today for once..."
                  (the ending gets played twice again last time through)

Riff 3
 C|--------------------------------|
 G|--------------------------------|
D#|--------------------------------|
A#|--------------------------------|
 F|-5-4--4--4--4-4-----4-----5-----|
A#|-4-4--4--4--4-4-4-4-4-4-4-4-4-4-|
                   * *   * *   * *

Play Riff 3 x6   "One to one pointed at the one..."

Riff 4
 C|---------------------------------|
 G|---------------------------------|
D#|---------------------------------|
A#|---------------------------------|
 F|-5-4-----4-------4-------4-----5-|
A#|-4-4-4-4-4-4-4-4-4-4-4-4-4-4-4-4-|
        * *   * * *   * * *   * *

Play Riff 4 x2   "The pack is circling..."
Play Riff 3 x4   "One to one..."
Play Riff 4 x2   "The pack is circling..."
Play ending of Riff 2 x2

Fill   "The world can be wrong today for once..."
 C|---------------------------------------------------------------|
 G|-/10~------/9~------/8~----------------------------------------|
D#|---------------------------------------------------------------|
A#|---------------------------------------------------------------|
 F|---------------------------\\\-4-4-4-4-5-5-5-5-6-6-6-6-7-7-7-7-|
A#|---------------------------\\\-4-4-4-4-4-4-4-4-4-4-4-4-4-4-4-4-|

Play Riff 2 x1   "The world can be wrong today for once..."
                  (ending gets played 4 times this time through)
Play Riff 3 x4   "One to one..."

Enjoy!!
Tap to rate this tab
# A B C D E F G H I J K L M N O P Q R S T U V W X Y Z