Song name
# A B C D E F G H I J K L M N O P Q R S T U V W X Y Z

Nonpoint - Buscandome tab

Nonpoint: Buscandome

Transcribed by: mysticguitar77

YouTube Channel: MysticGuitar77

Date last modified: January 18, 2014

Tuning: Drop A# (A#,F,A#,D#,G,C)

Riff 1   "What is the emergency..."
 C|-------------------------------------------------------------------|
 G|-------------------------------------------------------------------|
D#|-------------------------------------------------------------------|
A#|-------------------------------------------------------------------|
 F|-5-5-5ph-5-5-5ph-5-5-5ph-5-5ph-3ph-5-5-5ph-5-5-5ph-5-5-5ph-3-3ph-1-|
A#|-------------------------------------------------------------------|
    * *     * *     * *               * *     * *     * *

 C|---------------------------------------------------------------------|
 G|---------------------------------5-5---5-----5-5---5-----5-5---5-----|
D#|---------------------------------2-2---2-----2-2---2-----2-2---2-----|
A#|-3-3-3ph-3-3-3ph-3-3-3ph-3-3ph-2-3-3-3-3-3-3-3-3-3-3-3-3-3-3-3-3-3-3-|
 F|---------------------------------------------------------------------|
A#|---------------------------------------------------------------------|
    * *     * *     * *                 *   * *     *   * *     *   * *

 C|------------|
 G|------------|
D#|-5-7-7/11-8-|
A#|-x-x-x-x--x-|
 F|-3-5-5/9--6-|
A#|------------|

Note: Put slight bend on all pinch harmonics.

Riff 2   "The things you want to know about me..."
 C|----------------------------------------------------------|
 G|----------------------------------------------------------|
D#|----------------------------------------------------------|
A#|-----------------7\-----------------7\-----------------7\-|
 F|-----------------5\-----------------5\-----------------5\-|
A#|-0-0-0-0-0-0-0-0----0-0-0-0-0-0-0-0----0-0-0-0-0-0-0-0----|
    * * * * * * * *    * * * * * * * *    * * * * * * * *

 C|--------------------------------------------------------------------|
 G|--------------------------------------------------------------------|
D#|--------------------------------------------------------------------|
A#|-----7-7-5-----------------7\-----------------7\-----------------7\-|
 F|-----5-5-3-----------------5\-----------------5\-----------------5\-|
A#|-0-0-------0-0-0-0-0-0-0-0----0-0-0-0-0-0-0-0----0-0-0-0-0-0-0-0----|
    * *       * * * * * * * *    * * * * * * * *    * * * * * * * *
 
 C|-----------------------------------------------------------|
 G|-----------------------------------------------------------|
D#|-----------------------------------------------------------|
A#|-----5-7-3-3-3-3-3-3-3-3-3-2h3p2p0-3-3-3-3-3-3-3-3-2h3p2p0-|
 F|-----3-5-1-------------------------------------------------|
A#|-0-0-------------------------------------------------------|
    * *       * * * * * * * *         * * * * * * * *

 C|-------------------------------------------------------0-|
 G|---------------------------------------------------------|
D#|---------------------------------------------------2/5---|
A#|-3-3-3-3-3-3-3-3-2h3p2p0-3ph-3ph-2-3-3-3-3-3-3-3-3-------|
 F|---------------------------------------------------------|
A#|---------------------------------------------------------|
    * * * * * * * *                   * * * * * * * *

 C|-----------------5p0-----------------------0------------|
 G|--------------------------------------------------------|
D#|---------------------2-----------------2/5---5-7-7/11-8-|
A#|-3-3-3-3-3-3-3-3-------3-3-3-3-3-3-3-3-------x-x-x-x--x-|
 F|---------------------------------------------3-5-5/9--6-|
A#|--------------------------------------------------------|
    * * * * * * * *       * * * * * * * *

Riff 3   "Yo soy lo que soy..."
 C|----------------------------------------------|
 G|----------------------------------------------|
D#|----------7------------7------------7---------|
A#|----------x------------x------------x---5-5-3-|   x2
 F|----------5------------5------------5---5-5-3-|
A#|-0-0--0-0---0-0-0--0-0---0-0-0--0-0---0-5-5-3-|

 C|----------------------------------------------|
 G|----------------------------------------------|
D#|----------7------------8------------5---------|
A#|----------x------------x------------x---5-5-3-|   x2
 F|----------5------------6------------3---5-5-3-|
A#|-0-0--0-0---0-0-0--0-0---0-0-0--0-0---0-5-5-3-|

Play Riff 1 x1   "Should I explain what I'm trying to say..."
Play Riff 2 x1   "The things you want to know about me..."
Play Riff 3 x1   "Yo soy lo que soy..."

Riff 4
 C|-----------------------------------------------|
 G|-----------------------------------------------|
D#|-----------------------------------------------|
A#|-----------------------------------------------|   x2
 F|-----------6-------------------6---------6p0-5-|
A#|-0-0-0-0-0---0-0-0-0-0-0-0-0-0---0-0-0-0-------|
      * * * *   * * * *   * * * *   * * * *

 C|-----------------------------------------------|
 G|-----------------------------------------------|
D#|-----------------------------------------------|
A#|-----------5-------------------5---------5---4-|
 F|-----------6-------------------6---------6p0-5-|
A#|-0-0-0-0-0---0-0-0-0-0-0-0-0-0---0-0-0-0-------|
      * * * *   * * * *   * * * *   * * * *

 C|--------------------------------------------|
 G|--------------------------------------------|
D#|--------------------------------------------|
A#|--------------------------------------------|
 F|-10-10-10-10-9-9-9-9-8-8-8-8-7-7-7-7-0-3-5b-|
A#|--------------------------------------------|
       *  *  *    * * *   * * *   * * *

Play Riff 4 x2 (insert pinch harmonics appropriately)

Riff 5
 C|-------------------------------|
 G|-------------------------------|
D#|-------------------------------|
A#|-------5---------5-------5---4-|   x3
 F|-------6---------6-------6p0-5-|
A#|-0-0-0---0-0-0-0---0-0-0-------|

 C|--------------------------------------------|
 G|--------------------------------------------|
D#|--------------------------------------------|
A#|--------------------------------------------|
 F|-10-10-10-10-9-9-9-9-8-8-8-8-7-7-7-7-0-3-5b-|
A#|--------------------------------------------|
       *  *  *    * * *   * * *   * * *

Fill 1
 C|---------------------|
 G|---------------------|
D#|---------------------|
A#|-0~------------5-5-3-|
 F|-0~------------5-5-3-|
A#|-0~------------5-5-3-|

Play Riff 3 x1   "Yo soy lo que soy..."

Fill 2
 C|------------------------------------------------|
 G|------------------------------------------------|
D#|------------------------------------------------|
A#|------------------------------------------------|
 F|-----------6-------------------6---------6p0-\\-|
A#|-0-0-0-0-0---0-0-0-0-0-0-0-0-0---0-0-0-0-----\\-|
      * * * *   * * * *   * * * *   * * * *

Play Riff 5 x2

Ending
 C|----------------------------|
 G|----------------------------|
D#|----------------------------|
A#|-0~---\\\-------------------|
 F|-0~---\\\downward pickslide-|
A#|-0~---\\\-------------------|

Enjoy!!
Tap to rate this tab
# A B C D E F G H I J K L M N O P Q R S T U V W X Y Z