Song name
# A B C D E F G H I J K L M N O P Q R S T U V W X Y Z

Nonpoint - Normal Days tab

Nonpoint: Normal Days

Transcribed by: mysticguitar77

YouTube Channel: MysticGuitar77

Date last modified: February 24, 2014

Tuning: Drop C (C,G,C,F,A,D)

Riff 1 (w/ phaser, let all chords ring out)
D|--------------------|
A|--------------------|
F|--------------------|
C|-5~----9~----3~-----| x3
G|-5~----9~----3~-----|
C|-5~----9~----3~-----|

D|--------------------|
A|--------------------|
F|--------------------|
C|-5~----9~----10~----|
G|-5~----9~----10~----|
C|-5~----9~----10~----|

Riff 2   "Trying to find the words..."
D|--------------------------------------------|
A|--------------------------------------5*----|
F|-----------------------------------------5*-|
C|-5-3-5-5b6-5-3-5-5b6-5-3-5-5b6-5-3-5*-------| x2
G|-5-3-5-5b6-5-3-5-5b6-5-3-5-5b6-5-3----------|
C|-5-3-5-5b6-5-3-5-5b6-5-3-5-5b6-5-3----------|

D|----------------------------------------------------------|
A|----------------------------------------------------5*----|
F|-------------------------------------------------------5*-|
C|-x-5-3-5-5-6\5-x-5-3-5-5-6\5-x-5-3-5-5-6\5-x-5-3-5*-------|
G|-x-5-3-5-5-6\5-x-5-3-5-5-6\5-x-5-3-5-5-6\5-x-5-3----------|
C|-x-5-3-5-5-6\5-x-5-3-5-5-6\5-x-5-3-5-5-6\5-x-5-3----------|

D|--------------------------------------------|
A|--------------------------------------5*----|
F|-----------------------------------------5*-|
C|-5-3-5-5b6-5-3-5-5b6-5-3-5-5b6-5-3-5*-------|
G|-5-3-5-5b6-5-3-5-5b6-5-3-5-5b6-5-3----------|
C|-5-3-5-5b6-5-3-5-5b6-5-3-5-5b6-5-3----------|

Riff 3   "Winding down you're just finding..."
D|-----------------------------------------------------------------|
A|-----------------------------------------------------------------|
F|-----------------------------------------------------------------|
C|-----5-----5---5-----5-----5---5-----3-----3---3-----0-------3h5-| x3
G|---------------------------------6-6---6-6---6---5-5---5-5-5-3h5-|
C|-5-5---5-5---5---5-5---5-5---5-------------------------------3h5-|
   * *   * *   *   * *   * *   *   * *   * *   *   * *   * *

D|-----------------------------------------------------------------|
A|-----------------------------------------------------------------|
F|-----------------------------------------------------------------|
C|-----5-----5---5-----5-----5---5-----3---3---3-------0---0---3h5-|
G|---------------------------------6-6---6---6---6-5-5---5---5-3h5-|
C|-5-5---5-5---5---5-5---5-5---5-------------------------------3h5-|
   * *   * *   *   * *   * *   *

Play Riff 2 x1   "Just trying to find the words..."
Play Riff 3 x1   "You can't fool me with your smiles..."
Play Riff 2 x1   "Just trying to find the words..."
Play Riff 1 x1

Riff 4   "A second look at your stance..."
D|---------------------------------------|
A|---------------------------------------|
F|---------------------------------------|
C|-------5--------9------5---3h5---3-3h5-|
G|----5--------9-------------------------|
C|-5--------9--------3~----3-----3-------|
   *  *     *  *

D|----------------------------------|
A|----------------------------------|
F|-------7--------11\---------------|
C|--------------------3--3--3--3--3-|
G|----5--------9------3--3--3--3--3-|
C|-5--------9---------3--3--3--3--3-|

Play Riff 2 x1   "Just trying to find the words..."

Fill 1
D|-----------------------------------------------------------------|
A|-----------------------------------------------------------------|
F|-----------------------------------------------------------------|
C|-5-5-5-5-5-5-5-5-9-9-9-9-9-9-9-9-3-3-3-3-3-3-3-3-3-3-3-3-3-3-3-3-|
G|-5-5-5-5-5-5-5-5-9-9-9-9-9-9-9-9-3-3-3-3-3-3-3-3-3-3-3-3-3-3-3-3-|
C|-5-5-5-5-5-5-5-5-9-9-9-9-9-9-9-9-3-3-3-3-3-3-3-3-3-3-3-3-3-3-3-3-|

Riff 5   "The way, the time..."
D|-----------------------------------------------------------------|
A|-----------------------------------------------------------------|
F|-----------------------------------------------------------------|
C|-5-5-5-5-5-5-5-5-9-9-9-9-9-9-9-9-3-3-3-3-3-3-3-3-3-3-3-3-3-3-3-3-|
G|-5-5-5-5-5-5-5-5-9-9-9-9-9-9-9-9-3-3-3-3-3-3-3-3-3-3-3-3-3-3-3-3-|
C|-5-5-5-5-5-5-5-5-9-9-9-9-9-9-9-9-3-3-3-3-3-3-3-3-3-3-3-3-3-3-3-3-|

D|---------------------------------|
A|---------------------------------|
F|---------------------------------|
C|-5-5-5-5-5-5-5-5-9-9-9-9-9-9-9-9-|
G|-5-5-5-5-5-5-5-5-9-9-9-9-9-9-9-9-|
C|-5-5-5-5-5-5-5-5-9-9-9-9-9-9-9-9-|

D|-------------------------------------------------|
A|-------------------------------------------------|
F|-------------------------------------------------|
C|-10-10-10-10-10-10-10-10-10-10-10-10-10-10-10-10-|
G|-10-10-10-10-10-10-10-10-10-10-10-10-10-10-10-10-|
C|-10-10-10-10-10-10-10-10-10-10-10-10-10-10-10-10-|

Play Riff 5 x2   "Strange days to normal days..."

Ending
D|-------------------------------------|
A|-------------------------------------|
F|-------------------------------------|
C|-5~----9~----3~----3~----3~----3~----|
G|-5~----9~----3~----3~----3~----3~----|
C|-5~----9~----3~----3~----3~----3~----|

Enjoy!!
Tap to rate this tab
# A B C D E F G H I J K L M N O P Q R S T U V W X Y Z