Song name
# A B C D E F G H I J K L M N O P Q R S T U V W X Y Z

Nonpoint - My Own Sake tab

Band : Nonpoint
Song : My Own Sake (Intro)
Album : Development
MCA Records, Hong Kong
2002

Interpretation by John Martinovich

Tuning : Drop C (CGCFAD)



Intro scream, then :

C|------------|-----------------------|---------------------------------------------|
G|------------|-----------------------|---------------------------------------------|
C|------------|-----------------------|---------------------------------------------|
F|----2222----|-----------------------|---------------------------------------------|
A|----2222----|------------5p3---2----|------------5p3---2--2-2--2-2----------------|
D|----2222----|----5p3-0h3-----3-2----|----5p3-0h3-----3-2--2-2--2-2----------------|
       x4                 x1             PM-------------------------            



C|-----------------------|---------------------------------------------|
G|-----------------------|---------------------------------------------|
C|-----------------------|---------------------------------------------|
F|-----------------------|---------------------------------------------|
A|------------5p3---2----|------------5p3---2--2-2--2-2----------------|
D|----5p3-0h3-----3-2----|----5p3-0h3-----3-2--2-2--2-2----------------|
    PM---------------       PM-------------------------
Tap to rate this tab
# A B C D E F G H I J K L M N O P Q R S T U V W X Y Z