Song name
# A B C D E F G H I J K L M N O P Q R S T U V W X Y Z

Nonpoint - Normal Days tab

Band- Nonpoint
Song- Normal Days

Tuning: Drop C (C,G,C,F,A,D)

H  = hammer on
<> = harmonic
.  = palm mute


Intro: phaser
------------------------------------------------------------------------------|
------------------------------------------------------------------------------|
-------4----------------------------------------------------------------------|
-5-----4------3---------------------------------------------------------------|
-5-----2------3---------------------------------------------------------------|
-5------------3---------------------------------------------------------------|

verse 1:
---------------------------------------------|--------------------------------|
-------------------------------------<5>-----|--------------------------------|
-----------------------------------------<5>-|----<5>-------------------------|
-5-3-5--5-3-5--5-3-5--5-3-5------<5>---------|--------<5>---------------------|
-5-3-5--5-3-5--5-3-5--5-3-5---<5>------------|-<5>----------------------------|
-5-3-5--5-3-5--5-3-5--5-3-5------------------|--------------------------------|

verse 2:
------------------------------------------------------------------------------|
------------------------------------------------------------------------------|
------------------------------------------------------------------------------|
-----5-----5------5------5------3-----3---------------------------------------|
--------------------------------------------5-----5---------------------------|
-0-0---0-0----0-0----0-0----0-0---0-0---0-0---0-0-----------------------------|
 . .   . .    . .    . .    . .   . .   . .   . .

------------------------------------------------------------------------------|
------------------------------------------------------------------------------|
------------------------------------------------------------------------------|
-----5-----5------5-----5------3-3-3-3-3--------------------------------------|
-----------------------------------------5-5-5-5-5-5--------------------------|
-0-0---0-0----0-0---0-0----0-0------------------------------------------------|
 . .   . .    . .   . .    . .


interlude 2:27
------------------------------------------------------------------------------|
------------------------------------------------------------------------------|
------------------------------------------------------------------------------|
-0-0--5--0-0--8--3--3-3h5-0---------------------------------------------------|
-0-0-----0-0-----3------------------------------------------------------------|
-0-0-----0-0-----3------------------------------------------------------------|
 . .     . .

outro:
------------------------------------------------------------------------------|
-8-8-8-8-8-8-8-8--12-12-12-12-12-12-12-12--6-6-6-6-6-6-6----------------------|
-7-7-7-7-7-7-7-7--11-11-11-11-11-11-11-11--5-5-5-5-5-5-5----------------------|
-5-5-5-5-5-5-5-5--9--9--9--9--9--9--9--9---3-3-3-3-3-3-3----------------------|
-5-5-5-5-5-5-5-5--9--9--9--9--9--9--9--9---3-3-3-3-3-3-3----------------------|
-5-5-5-5-5-5-5-5--9--9--9--9--9--9--9--9---3-3-3-3-3-3-3----------------------|
Tap to rate this tab
 
# A B C D E F G H I J K L M N O P Q R S T U V W X Y Z