Song name
# A B C D E F G H I J K L M N O P Q R S T U V W X Y Z

Nonpoint - Past It All tab

Past It All  Acoustica
Nonpoint
Recoil
email: ninety_sixmustang@yahoo.com

Ive searched far and long for even an attempt at this most excellent song by Nonpoint.
  I got fed up from my lack of results and stayed up late one night to tab it out. Its
a beautiful song.  Enjoy!

Drop C Tuning
Heres a link for Drop C tuning if you dont know how:

Intro/Verse:
Intro 

D|------0-----0---0------|
A|--1-1---1-3---3---3-0-|
F|--2-2------------------|
C|--2-2------------------|
G|--0-0------------------|
C|-----------------------|

D|------0-----0---0---0--|
A|--0-0---0-0---0---0----|
F|--1-1-----1------------|       X2 
C|--2-2-----2------------|
G|--2-2-----2------------|
C|-----------------------|

Verse X 2 then strumming 


Chorus:

D|--0---0---0---0------------------|
A|--1---1---1---1-------0---0---0--|
F|--2---2---2---2-------1---1---1--|
C|--2---2---2---2-------2---2---2--|
G|--0---0---0---0-------2---2---2--|
C|---------------------------------|

Past all...wasted       I saw the end

D|--0---0---0---0-----------------------------|
A|--1---1---1---1-----------------------------|
F|--2---2---2---2-------------------2-2-2---|
C|--2---2---2---2------3---3---3----2--2--2---|
G|--0---0---0---0------3---3---3----1--1--1---|
C|---------------------3---3---3----0--0--0---|
 
 This wasnt...said   it would be   when I...

D|--0---0---0---0---0-------------------|
A|--1---1---1---1---1------0--0--0--0---|
F|--2---2---1---2---2------1--1--1--1---|
C|--2---2---2---2---2------2--2--2--2---|
G|--0---0---0---0---0------2--2--2--2---|
C|--------------------------------------|

Heard the words...began    Past it all

D|--0---0---0---0-----------------------------|
A|--1---1---1---1-----------------------------|
F|--2---2---2---2-------------------2-2-2---|
C|--2---2---2---2------3---3---3----2--2--2---|
G|--0---0---0---0------3---3---3----1--1--1---|
C|---------------------3---3---3----0--0--0---|
 
This wasnt...said   it would be  when I got there


Bridge:

D|--0---0---0---0---------------------------------|
A|--1---1---1---1---------------------------------|
F|--2---2---2---2-----------------2-2-2---------|
C|--2---2---2---2------3--3--3----2--2--2---3----5-|
G|--0---0---0---0------3--3--3----1--1--1---3----5-|
C|---------------------3--3--3----0--0--0---3----5-|

This wasnt...said     it would be when I   got  there

D|---------------------------|
A|---------------------------|
F|---------------2-2-2-----|
C|--3--3--3------2--2--2-----|
G|--3--3--3------1--1--1-----|  
C|--3--3--3------0--0--0-----|

When I got therewhen I got there

D|---------------------------------|
A|---------------------------------|
F|--2-2-2------------------------|
C|--2--2--2---3--3--3----5--5--5---|  x4
G|--1--1--1---3--3-3----5--5--5---|
C|--0--0--0---3--3--3----5--5--5---|

Chorus

Tap to rate this tab
# A B C D E F G H I J K L M N O P Q R S T U V W X Y Z