Guitaretab - guitar tabs
Song name
# A B C D E F G H I J K L M N O P Q R S T U V W X Y Z

Nonpoint - Code Red tab

Song - Code Red
Band - Nonpoint

Tunning: Drop B (B,Fb,B,E,G#,C#)

I know most Nonpoint songs are in drop C but as much as I tired to play it in drop C I
this song is in either drop B or was recorded in a lower octave of drop C.
Some parts of song are some what off but no one else has post this song and this to get
understanding so other people can get it right. Note this is my first tab.
*: Harm.
G: Ghost Note/Chord
SD: Slide Down
SU:Slide Up
P.M: Palm Mute
X: Mute
^: Pull Down


Intro Chorus (not timed)
------------------------------------------------------------------------------|
------------------------------------------------------------------------------|
--------13---14-11------9-------------------------13--14-11-------9-SU8-------|
---------x-----x--x-------x--------------------------x----x--x---------x-SUx--|
---1---11---12--9-------7-------3*-3*--1-------11--12--9--------7--SU6--------|
---1------------------------------------------1-------------------------------|
P.M                                         .

Verse: (runaway its the only...) Play This For Every Verse
----------------------------------------------------------------|
----------------------------------------------------------------|
----------------------------------------------------------------|
--0X------------0X-0X-0X------------------0X----------0X-0X-0X--|
--0X------------0X-0X-0X------------------0X----------0X-0X-0X--|
--0X------------0X-0X-0X------------------0X----------0X-0X-0X--|

Verse Bridge (I'm not moving if you paid, this the shit that's gonna make me curl up 
and die)
----------------------------------------------------------|
----------------------------------------------------------|
----------------13----SD16---------------------------14---|
-----------------X-----SD-X----------------------------X--|
----------------11----SD14---------------------------12---|
----------------------------------------------------------|

Verse Bridge 2(I'm not to sure if this right)
----------------------------------------------------------------|
----------------------------------------------------------------|
----------------------------------------------------------------|
----------------13------SD16------------------------------------|
-----------------X-------SD-X-------17^---15-14--------12SD11G--|
----------------11------SD14------------------------------------|


Perchorus Ending Chorus( Code red calling for code red)
-------------------------------------------------------------|
-------------------------------------------------------------|
-------------------------------------------------------------|
--1X-----1X-1X-1X-------------------1X-----1X-1X-1X----------|
--1X-----1X-1X-1X-----3*-3*-------1X-----1X-1X-1X-----3*-3*--|
--1X-----1X-1X-1X-------------------1X-----1X-1X-1X----------|

[ Tab from: http://www.guitaretab.com/n/nonpoint/83416.html ]
Perchorus Ending Chorus Count.
-----------------------------------------------------------------------|
-----------------------------------------------------------------------|
-----------------------------------------------------------------------|
--0X---------0X-0X-0X---------------0X------0X-0X-0X------6--5--3------|
--0X---------0X-0X-0X----3*-3*----0X------0X-0X-0X------6--5--3-3*-3*--|
--0X---------0X-0X-0X---------------0X------0X-0X-0X------6--5--3------|


 Chorus (not timed)
------------------------------------------------------------------------------|
------------------------------------------------------------------------------|
--------13---14-11------9-------------------------13--14-11-------9-SU8-------|
---------x-----x--x-------x--------------------------x----x--x---------x-SUx--|
---1---11---12--9-------7-------3*-3*--1-------11--12--9--------7--SU6--------|
---1------------------------------------------1-------------------------------|
P.M                                         .

Intro To Last Bridge                                                           End On 
Harm.
-----------------------------------------------------------------------------------------------------|
-----------------------------------------------------------------------------------------------------|
-----------------------------------------------------------------------------------------------------|
-1let-ring------------------0let-ring----------------------1let-ring---------------------------------|
-1let-ring--------3*-3*---0let-ring--------3*-3*-------1let-ring------------------------------3*-3*--|
-1let-ring------------------0let-ring----------------------1let-ring---------------------------------|

Intro To Last Bridge Count.                                                              
                         X.2
-----------------------|
-----------------------|
-----------------------|
-0--1--1------0--1--1--|
-0--1--1------0--1--1--|
-0--1--1------0--1--1--|

Last Bridge                                          Play X.2 On The Second Time Don't Slide
-------------------------------------------------------------------|
-------------------------------------------------------------------|
-------------------------------------------------------------------|
-0--1--1------0--1--1------0--1--1-------0--1--1-------------------|
-0--1--1------0--1--1------0--1--1-------0--1--1-------------------|
-0--1--1------0--1--1------0--1--1-------0--1--1----12SU-let-ring--|


 Ending Chorus( Code red calling for code red)
-------------------------------------------------------------|
-------------------------------------------------------------|
-------------------------------------------------------------|
--1X-----1X-1X-1X-------------------1X-----1X-1X-1X----------|
--1X-----1X-1X-1X-----3*-3*-------1X-----1X-1X-1X-----3*-3*--|
--1X-----1X-1X-1X-------------------1X-----1X-1X-1X----------|


 Ending Chorus Count.
-----------------------------------------------------------------------|
-----------------------------------------------------------------------|
-----------------------------------------------------------------------|
--0X---------0X-0X-0X---------------0X------0X-0X-0X------6--5--3------|
--0X---------0X-0X-0X----3*-3*----0X------0X-0X-0X------6--5--3-3*-3*--|
--0X---------0X-0X-0X---------------0X------0X-0X-0X------6--5--3------|

Outro
----------------------|
----------------------|
----------------------|
---0X----1X--1X---0X--|
---0X----1X--1X---0X--|
---0X----1X--1X---0X--|


Thats it, it needs some work put thats the best I can do right now.
Please tell me what you think about this tab so I can make a better tabs.
I will most likly make a better tab in the future .
Related for Code Red tab
Advertisement will be closed in 10 seconds