Song name
# A B C D E F G H I J K L M N O P Q R S T U V W X Y Z

Nonpoint - Explain Myself tab

tuning: drop a#

Great song, no one had it tabbed so i did it myself. This just gives the parts, doesnt 
them in order, but thats easy and you can figure it out yourself. Again, great song, 
band - enjoy.

intro/verse - during the verses, you do a palm mute on the 6th
C |-----------|        fret a few times, listen to the song to
G |-----------|        figure out the timing and stuff.
D#|-----------|
A#|-0-3-7-6~~~|
F |-0-3-7-6~~~|
A#|-0-3-7-6~~~| 3x

chorus
C |--------------------------------------|
G |--------------------------------------|
D#|--------------------------------------|
A#|--0--2--3--5--3--3--2--3--0--2--3--2--|
F |--0--2--3--5--3--3--2--3--0--2--3--2--|
A#|--0--2--3--5--3--3--2--3--0--2--3--2--|

   first ending       second ending
C |--------------|   |--------------|
G |--------------|   |--------------|
D#|--------------|   |--2--2--2-----|
A#|--0--3--6--7--|   |--2--2--2--0--|
F |--0--3--6--7--|   |--0--0--0--0--|
A#|--0--3--6--7--|   |-----------0--|

pre-chorus
C |--------------------------------------------|
G |--------------------------------------------|
D#|--------------------------------------------|
A#|-----------------------------------------0--|
F |------5---------------5---------5--5--5--0--|
A#|--6b-----6b--0----6b-----6b--0-----------0--|

bridge
C |---------14\---------14\--------------------14--14b15r14b15r14\--|
G |--10/13-------10/13-----------13/15--10/13-----------------------|
D#|--------------------------10-------------------------------------|
A#|-----------------------------------------------------------------|
F |-----------------------------------------------------------------|
A#|-----------------------------------------------------------------|

C |---------14\--------------------14-(fade out for solo)--|
G |--10/13-----------15/16--10/13--------------------------|
D#|--------------10----------------------------------------|
A#|--------------------------------------------------------|
F |--------------------------------------------------------|
A#|--------------------------------------------------------|

solo
C |-------------------------------------------------|
G |--5h6--5h6p5--3/5\3/5\3--5h6--5h6p5--3--5--3-----|
D#|----------------------------------------------2--|
A#|-------------------------------------------------|
F |-------------------------------------------------|
A#|-------------------------------------------------|

C |----------------------------------|
G |--5h6--5h6p5--3h5--6/8--8/10--10--|
D#|----------------------------------|
A#|----------------------------------|
F |----------------------------------|
A#|----------------------------------|

C |----------------------------8/10/12--12h13p12--10\8/10--|
G |--10h11--10h11p10--8/10/11------------------------------|
D#|--------------------------------------------------------|
A#|--------------------------------------------------------|
F |--------------------------------------------------------|
A#|--------------------------------------------------------|

C |--10--12--13--15--13--12--13--12-------------------------------------|
G |----------------------------------10---------------------------------|
D#|--------------------------------------9h10b12r10--9h10b14r10--9--10--|
A#|---------------------------------------------------------------------|
F |---------------------------------------------------------------------|
A#|---------------------------------------------------------------------|
                      pause here before the hammer on
C |---------------------------V------------------|
G |--------------------------5-h6p5-----5--6--8--|
D#|--------------------6--7----------7-----------|
A#|-----------5--7--8----------------------------|
F |--5--7--8-------------------------------------|
A#|----------------------------------------------|
                       pinch harmonic, 2 octaves higher
C |--------------------<5>h6p5------------------|
G |--8b10--8--6--8--6--------------5------------|
D#|-----------------------------7-----7b9r7--5--|
A#|---------------------------------------------|
F |---------------------------------------------|
A#|---------------------------------------------|

bridge after solo
C |---------14\---------14\--------------------14--14b15r14b\---------|
G |--10/13-------10/13-----------13/15--10/13-------------------------|
D#|--------------------------10---------------------------------------|
A#|-------------------------------------------------------------------|
F |-------------------------------------------------------------------|
A#|-------------------------------------------------------------------|

C |---------14\----------|
G |--10/13-----------15--|
D#|--------------10------|
A#|----------------------|
F |----------------------|
A#|----------------------|

C |-----------------------------------------------|
G |--10--10-10-10-10-10-10-10-10-10-10b11--11-11--|
D#|-----------------------------------------------|
A#|-----------------------------------------------|
F |-----------------------------------------------|
A#|-----------------------------------------------| 4x

outro - another guitar plays bridge during this

lead
     pinch harmonic, 2 octaves higher
C |--<5>h6p5------------|
G |-----------5h6p5-----|
D#|------------------7--|
A#|---------------------|
F |---------------------|
A#|---------------------| 4x at the end

rhythm
C |-------------|                    |-----------|
G |-------------|                    |-----------|
D#|-------------|                    |-----------|
A#|--1-1-1-1-0--|                    |--1-1-1-1--|
F |--1-1-1-1-0--|                    |--1-1-1-1--|
C |--1-1-1-1-0--| 4x, and end with   |--1-1-1-1--|
Tap to rate this tab
# A B C D E F G H I J K L M N O P Q R S T U V W X Y Z