Song name
# A B C D E F G H I J K L M N O P Q R S T U V W X Y Z

Nonpoint - Bullet With A Name On It tab

Help us improve GuitareTab! Take a short survey!
e|---------------------------------------------------------------------|
B|---------------------------------------------------------------------|
G|---------------------------------------------------------------------|
D|-0-0-3-1-0-0-3-1-0-0-3-1-0-0-3-1-0-0-3-1-0-0-3-1-0-0-3-1-10-10-10-10-|
A|-0-0-3-1-0-0-3-1-0-0-3-1-0-0-3-1-0-0-3-1-0-0-3-1-0-0-3-1-10-10-10-10-|
D|-0-0-3-1-0-0-3-1-0-0-3-1-0-0-3-1-0-0-3-1-0-0-3-1-0-0-3-1-10-10-10-10-|
Pm . . . . . . . . . . . . . . . . . . . . . . . . . . . . 

I just turn and keep on my crybaby so it sounds all treblish and twangy.
e|------------------------|
B|------------------------|
G|------------------------|
D|------------------------|
A|-0--3-1-0--3-1-0--3-1-0-|
D|-0--3-1-0--3-1-0--3-1-0-|

I think there's a metal pedal on the whole song, but i hav a cheap 1 so its kinda hard 2 tell.

Related for Bullet With A Name On It tab