Song name
# A B C D E F G H I J K L M N O P Q R S T U V W X Y Z

Nonpoint - Move Now tab

Nonpoint
Recoil
Move Now
Drop-c

intro
D|------------------------------|
A|------------------------------|
F|-----------------------9-10-9-|
C|-----------------------x-x--x-|
G|-----5b-----5b-----5b--7-8--7-|
C|-000----000----000------------|
   ---    ---    ---  

verse
D|-----------------------------|
A|-----------------------------|
F|--------------10-10-10-10-10-|
C|-00---00---00-7--7--7--7--7--|
G|-00---00---00-7--7--7--7--7--|
C|-00---00---00-7--7--7--7--7--|

D|--------------------------|
A|--------------------------|
F|----------777-----555-----|
C|-00---00------------------|
G|-00---00------888-----777-|
C|-00---00------------------|

D|-----------------------------|
A|-----------------------------|
F|--------------10-10-10-10-10-|
C|-00---00---00-7--7--7--7--7--|
G|-00---00---00-7--7--7--7--7--|
C|-00---00---00-7--7--7--7--7--|

D|---------------------------|
A|---------------------------|
F|---------------------------|
C|-00---00---777-----555-----|
G|-00---00-------888-----777-|
C|-00---00-------------------|


D|--------------------------|
A|--------------------------|
F|----------------------555-|
C|----------------------555-|
G|-----5b----5b----5b---333-|
C|-000---000---000----------|

D|------------------------------|
A|------------------------------|
F|--------------777-----555-----|
C|------------------------------|
G|-----5b----5b-----888-----777-|
C|-000---000--------------------|

D|--------------------------|
A|--------------------------|
F|----------------------555-|
C|----------------------555-|
G|-----5b----5b----5b---333-|
C|-000---000---000----------|

pre-chorus
D|------------------------------------------------------|
A|------------------------------------------------------|
F|------------------------------------------------------|
C|-3-3333-333---2-2222-222---3-3333-333---5-5555-55-5-5-|
G|-3-3333-333---2-2222-222---3-3333-333---5-5555-55-5-5-|
C|-3-3333-333---2-2222-222---3-3333-333---5-5555-55-5-5-|

D|-------------------------|
A|-5---5---7---7---8---8---|
F|-------------------------|(chorus lead)
C|-------------------------|
G|-------------------------|
C|-------------------------|

chorus
D|----------------|-----------------|----------------|----------------|
A|----------------|-----------------|----------------|----------------|
F|-------10-9--10-|-------10-9--10--|-------12-10-12-|-------9-10-9---|
C|-00-00-x--x--x--|-00-00-x--x--x---|-55-55-x--x--x--|-33-33-x-x--x---|
G|-00-00-8--7--8--|-00-00-8--7--8---|-55-55-10-8--10-|-33-33-7-8--7---|
C|-00-00----------|-00-00-----------|-55-55----------|-33-33----------|

D|----------------|----------------|----------------------------|
A|----------------|----------------|----------------------------|
F|-------10-9--10-|-------10-9--10-|----------------------------|
C|-00-00-x--x--x--|-00-00-x--x--x--|-5-5555-555---3-3333-33-3-3-|
G|-00-00-8--7--8--|-00-00-8--7--8--|-5-5555-555---3-3333-33-3-3-|
C|-00-00----------|-00-00----------|-5-5555-555---3-3333-33-3-3-|

D|----------------|-----------------|----------------|----------------|
A|----------------|-----------------|----------------|----------------|
F|-------10-9--10-|-------10-9--10--|-------12-10-12-|-------9-10-9---|
C|-00-00-x--x--x--|-00-00-x--x--x---|-55-55-x--x--x--|-33-33-x-x--x---|
G|-00-00-8--7--8--|-00-00-8--7--8---|-55-55-10-8--10-|-33-33-7-8--7---|
C|-00-00----------|-00-00-----------|-55-55----------|-33-33----------|

D|----------------|----------------|------------|
A|----------------|----------------|------------|
F|-------10-9--10-|-------10-9--10-|------------|
C|-00-00-x--x--x--|-00-00-x--x--x--|-3--2--3--5-|
G|-00-00-8--7--8--|-00-00-8--7--8--|-3--2--3--5-|
C|-00-00----------|-00-00----------|-3--2--3--5-|

verse
D|-----------------------------|
A|-----------------------------|
F|--------------10-10-10-10-10-|
C|-00---00---00-7--7--7--7--7--|
G|-00---00---00-7--7--7--7--7--|
C|-00---00---00-7--7--7--7--7--|

D|--------------------------|
A|--------------------------|
F|----------777-----555-----|
C|-00---00------------------|
G|-00---00------888-----777-|
C|-00---00------------------|

D|-----------------------------|
A|-----------------------------|
F|--------------10-10-10-10-10-|
C|-00---00---00-7--7--7--7--7--|
G|-00---00---00-7--7--7--7--7--|
C|-00---00---00-7--7--7--7--7--|

D|---------------------------|
A|---------------------------|
F|---------------------------|
C|-00---00---777-----555-----|
G|-00---00-------888-----777-|
C|-00---00-------------------|


D|--------------------------|
A|--------------------------|
F|----------------------555-|
C|----------------------555-|
G|-----5b----5b----5b---333-|
C|-000---000---000----------|

D|------------------------------|
A|------------------------------|
F|--------------777-----555-----|
C|------------------------------|
G|-----5b----5b-----888-----777-|
C|-000---000--------------------|

D|--------------------------|
A|--------------------------|
F|----------------------555-|
C|----------------------555-|
G|-----5b----5b----5b---333-|
C|-000---000---000----------|

pre-chorus
D|------------------------------------------------------|
A|------------------------------------------------------|
F|------------------------------------------------------|
C|-3-3333-333---2-2222-222---3-3333-333---5-5555-55-5-5-|
G|-3-3333-333---2-2222-222---3-3333-333---5-5555-55-5-5-|
C|-3-3333-333---2-2222-222---3-3333-333---5-5555-55-5-5-|

D|-------------------------|
A|-5---5---7---7---8---8---|
F|-------------------------|(chorus lead)
C|-------------------------|
G|-------------------------|
C|-------------------------|

chorus
D|----------------|-----------------|----------------|----------------|
A|----------------|-----------------|----------------|----------------|
F|-------10-9--10-|-------10-9--10--|-------12-10-12-|-------9-10-9---|
C|-00-00-x--x--x--|-00-00-x--x--x---|-55-55-x--x--x--|-33-33-x-x--x---|
G|-00-00-8--7--8--|-00-00-8--7--8---|-55-55-10-8--10-|-33-33-7-8--7---|
C|-00-00----------|-00-00-----------|-55-55----------|-33-33----------|

D|----------------|----------------|----------------------------|
A|----------------|----------------|----------------------------|
F|-------10-9--10-|-------10-9--10-|----------------------------|
C|-00-00-x--x--x--|-00-00-x--x--x--|-5-5555-555---3-3333-33-3-3-|
G|-00-00-8--7--8--|-00-00-8--7--8--|-5-5555-555---3-3333-33-3-3-|
C|-00-00----------|-00-00----------|-5-5555-555---3-3333-33-3-3-|

D|----------------|-----------------|----------------|----------------|
A|----------------|-----------------|----------------|----------------|
F|-------10-9--10-|-------10-9--10--|-------12-10-12-|-------9-10-9---|
C|-00-00-x--x--x--|-00-00-x--x--x---|-55-55-x--x--x--|-33-33-x-x--x---|
G|-00-00-8--7--8--|-00-00-8--7--8---|-55-55-10-8--10-|-33-33-7-8--7---|
C|-00-00----------|-00-00-----------|-55-55----------|-33-33----------|

D|----------------|----------------|------------|
A|----------------|----------------|------------|
F|-------10-9--10-|-------10-9--10-|------------|
C|-00-00-x--x--x--|-00-00-x--x--x--|-3--2--3--5-|
G|-00-00-8--7--8--|-00-00-8--7--8--|-3--2--3--5-|
C|-00-00----------|-00-00----------|-3--2--3--5-|

bridge
D|------------------------------|
A|------------------------------|
F|-----------------------9-10-9-|
C|-----------------------x-x--x-|
G|-----5b-----5b-----5b--7-8--7-|
C|-000----000----000------------|
   ---    ---    ---  

D|-------------------------------------------------------------|
A|-------------------------------------------------------------|
F|--------------------------------------------777------555-----|
C|-------------------------------------------------------------|
G|-----5b-----5b-----5b-----5b-----5b-----5b------888-----777--|
C|-000----000----000----000----000----000----------------------|

D|----------------------------|----------------------------|
A|----------------------------|----------------------------|
F|------------------------555-|----------------------------|
C|------------------------555-|-5-5555-555---3-3333-33-3-3-|
G|-----5b-----5b-----5b---333-|-5-5555-555---3-3333-33-3-3-|
C|-000----000----000----------|-5-5555-555---3-3333-33-3-3-|

D|-------------------------------------------------------------|
A|-------------------------------------------------------------|
F|-------------------------------------------------------------|
C|--------------------------------------------777-----555------|
G|-----5b-----5b-----5b-----5b-----5b-----5b------888-----777--|
C|-000----000----000----000----000----000----------------------|

D|----------------------------|---------|
A|----------------------------|---------|
F|------------------------555-|---------|
C|------------------------555-|-3-2-3-5-|
G|-----5b-----5b-----5b---333-|-3-2-3-5-|
C|-000----000----000----------|-3-2-3-5-|

D|------------------------------|
A|------------------------------|
F|-----------------------9-10-9-|
C|-----------------------x-x--x-|
G|-----5b-----5b-----5b--7-8--7-|
C|-000----000----000------------|
   ---    ---    ---  

D|-------------------------|
A|-5---5---7---7---8---8---|
F|-------------------------|(chorus lead)
C|-------------------------|
G|-------------------------|
C|-------------------------|

chorus
D|----------------|-----------------|----------------|----------------|
A|----------------|-----------------|----------------|----------------|
F|-------10-9--10-|-------10-9--10--|-------12-10-12-|-------9-10-9---|
C|-00-00-x--x--x--|-00-00-x--x--x---|-55-55-x--x--x--|-33-33-x-x--x---|
G|-00-00-8--7--8--|-00-00-8--7--8---|-55-55-10-8--10-|-33-33-7-8--7---|
C|-00-00----------|-00-00-----------|-55-55----------|-33-33----------|

D|----------------|----------------|----------------------------|
A|----------------|----------------|----------------------------|
F|-------10-9--10-|-------10-9--10-|----------------------------|
C|-00-00-x--x--x--|-00-00-x--x--x--|-5-5555-555---3-3333-33-3-3-|
G|-00-00-8--7--8--|-00-00-8--7--8--|-5-5555-555---3-3333-33-3-3-|
C|-00-00----------|-00-00----------|-5-5555-555---3-3333-33-3-3-|

D|----------------|-----------------|----------------|----------------|
A|----------------|-----------------|----------------|----------------|
F|-------10-9--10-|-------10-9--10--|-------12-10-12-|-------9-10-9---|
C|-00-00-x--x--x--|-00-00-x--x--x---|-55-55-x--x--x--|-33-33-x-x--x---|
G|-00-00-8--7--8--|-00-00-8--7--8---|-55-55-10-8--10-|-33-33-7-8--7---|
C|-00-00----------|-00-00-----------|-55-55----------|-33-33----------|

D|----------------|----------------|------------------|
A|----------------|----------------|------------------|
F|-------10-9--10-|-------10-9--10-|------------------|
C|-00-00-x--x--x--|-00-00-x--x--x--|-3--2--3--2--3--5-|
G|-00-00-8--7--8--|-00-00-8--7--8--|-3--2--3--2--3--5-|
C|-00-00----------|-00-00----------|-3--2--3--2--3--5-|

outtro
D|------------------------------------------------------|
A|------------------------------------------------------|
F|------------------------------------------------------|
C|----------------------------------------------------0-|
G|-----5b-----5b-----5b-----5b-----5b-----5b-----5b---0-|
C|-000----000----000----000----000----000----000------0-|

Tap to rate this tab
# A B C D E F G H I J K L M N O P Q R S T U V W X Y Z