Song name
# A B C D E F G H I J K L M N O P Q R S T U V W X Y Z

Nonpoint - Side With The Guns tab

Help us improve GuitareTab! Take a short survey!
~-hold note
.-palm mute

Intro
e|-------------------|
B|----3----3----3----|
G|------4~---5~---4~-|
D|-2~----------------|
A|-2~----------------|
D|-2~----------------|

Verse
e|------------------|---------------------------|
B|------------------|---------------------------|
G|------------------|---------------------------|
D|-2-2-2h5-5-5p2-2\-|-2-2-2h5-5-1-1-1-1-1-1-1-1-|
A|-2-2-2h5-5-5p2-2\-|-2-2-2h5-5-1-1-1-1-1-1-1-1-|
D|-2-2-2h5-5-5p2-2\-|-2-2-2h5-5-1-1-1-1-1-1-1-1-|

e|--------------------------------------------------|
B|--------------------------------------------------|
G|--------------------------------------------------|
D|-2-2-2h5-5-5p2-2\--8--2-2-2h5-5-5-1-1-1-1-1-1-1-1-|
A|-2-2-2h5-5-5p2-2\--8--2-2-2h5-5-5-1-1-1-1-1-1-1-1-|
D|-2-2-2h5-5-5p2-2\--8--2-2-2h5-5-5-1-1-1-1-1-1-1-1-|

e|---------------------------------------------------|
B|---------------------------------------------------|
G|---------------------------------------------------|
D|-2-2-2h5-5-5p2-2-2h3-3-2-2-2h5-5-5-1-1-1-1-1-1-1-1-|
A|-2-2-2h5-5-5p2-2-2h3-3-2-2-2h5-5-5-1-1-1-1-1-1-1-1-|
D|-2-2-2h5-5-5p2-2-2h3-3-2-2-2h5-5-5-1-1-1-1-1-1-1-1-|

e|----------------------------------------------------------|
B|----------------------------------------------------------|
G|----------------------------------------------------------|
D|-2-2-2h5-5-5p2-2-2h3p2-2h3p2--2-2-2h5-5-5-1-1-1-1-1-1-1-1-|
A|-2-2-2h5-5-5p2-2-2h3p2-2h3p2--2-2-2h5-5-5-1-1-1-1-1-1-1-1-|
D|-2-2-2h5-5-5p2-2-2h3p2-2h3p2--2-2-2h5-5-5-1-1-1-1-1-1-1-1-|

Chorus
e|-------|x5                                
B|-------|                                   
G|-4-----|                                   
D|---2-2-|                                   
A|---2-2-|                                  
D|---2-2-|                                   
                                             
e|------------------------------------|      
B|------------------------------------|      
G|-4-3-----3-----3-----3-----2------2-|      
D|-----2-2---2-2---2-2---2-2---2-2-5--|      
A|-----2-2---2-2---2-2---2-2---2-2----|     
D|-----2-2---2-2---2-2---2-2---2-2----|     
                                            
Bridge
e|--------------------------------------|
B|-------3--------3--------3--------3---|
G|--------4--------5--------5---------4-|
D|--------------------------------------|
A|-------------------3-3-3----2-2-2-----|
D|-2-2-2----2-2-2-----------------------|

e|--------------------------------------|
B|-------3---------3--------3--------3--|
G|--------4---------5--------5--------5-|
D|-2-2-2-----2-2-2----5-5-5----5-5-5----|
A|-2-2-2-----2-2-2----5-5-5----5-5-5----|
D|-2-2-2-----2-2-2----5-5-5----5-5-5----|

e|------------------------------------------|
B|-------------------------------3----------|
G|--------------------------------4-------4-|
D|-7-7-7-7-7-7-7-7-7-0-0-0-2-2-2----2-2-2---|
A|-7-7-7-7-7-7-7-7-7-0-0-0-2-2-2----2-2-2---|
D|-7-7-7-7-7-7-7-7-7-0-0-0-2-2-2----2-2-2---|

e|---------|
B|---------|
G|---------|
D|-5-2-0-2-|
A|-5-2-0-2-|
D|-5-2-0-2-|

Intro
Verse
Chorus x2
Verse
Chorus x2
Intro
Bridge
Chorus x4
Outro
Related for Side With The Guns tab