Song name
# A B C D E F G H I J K L M N O P Q R S T U V W X Y Z

Noori - Do Dil tab

Ok, I tabbed the solo only a while back on IGT. But a lot of people just copypaste stuff 
n there so i thought I'd post it here too.

Oh, and I recorded a youtube video to go with it.

http://www.youtube.com/watch?v=DF-SQCGKnpU

Thanks :)

Q E E. E S S S S S E. S E S Q. S E
E||---------------------------------------|----------------------------------|
B||--11b-----Lbr-------11--11-12-11-------|-----------------------------11b--|
G||---------------13----------------13-11-|--11---11-----11s-13~------L------|
D||---------------------------------------|----------13----------------------|
A||---------------------------------------|----------------------------------|
E||---------------------------------------|----------------------------------|


E. S S S E. E S S S S S S E S E Q. E E
----------------------------------------|-----------------------------------|
--11---11-12-11-14---12--11-14-12-------|-----------------------------------|
----------------------------------15-13-|--13p-11--11-----13br------L-------|
----------------------------------------|-------------13----------------x\--|
----------------------------------------|-------------------------------x\--|
----------------------------------------|-----------------------------------|


PM PMPM PMPM PM PM
S S S S S S S S Q S S S S
--------------------------------------------------|
--------------------------14brb----14p-12h-14p-12-|
-----------------------11-------------------------|
--------------9--11-13----------------------------|
--------9--11-------------------------------------|
--9--11-------------------------------------------|


S S S S S S S S S S Q S S E. S E E. E S S S S S
--14----------------------------------------------|--14---14-14--12---12--12-12-12-12-12-|
-----14p-12----14p-12----14p-12h-14p-12~----12-14-|--12---12-12--12---12--12-12-12-12-12-|
------------13--------13--------------------------|--------------------------------------|
--------------------------------------------------|--------------------------------------|
--------------------------------------------------|--------------------------------------|
--------------------------------------------------|--------------------------------------|


PM PM PMPM PMPM
E. E. H E S S S S S S S H S
--/12---11---14--------L--|-----------------------------------|
--------------------------|-----------------------------------|
--------------------------|--8--9--11-8-----------------------|
--------------------------|--------------11-9--9s-11--------L-|
--------------------------|-----------------------------------|
--------------------------|-----------------------------------|


PM PM PMPM PMPM
S S S S S S E. S S S Q S S S S S S S H S
------------------------------------------|--11-12-14-11-----------------------|
--------------------12---12s-14s-12-12----|--------------14-12-12s-14--------L-|
--8--9--11-8------------------------------|------------------------------------|
--------------11-9------------------------|------------------------------------|
------------------------------------------|------------------------------------|
------------------------------------------|------------------------------------|


E. E. H E
------------------------||
--15---12---L--------L--||
------------------------||
------------------------||
------------------------||
------------------------||
Tap to rate this tab
 
# A B C D E F G H I J K L M N O P Q R S T U V W X Y Z