Song name
# A B C D E F G H I J K L M N O P Q R S T U V W X Y Z

Noori - Jo Meray tab

-------------------------------------------------------------------------------
                        JO MERAY - Noori (Coke Studio)
-------------------------------------------------------------------------------
Tuning: Standard

Noori performing at Coke Studio:
http://www.cokestudio.com.pk/Video.aspx?videoId=781&SeasonId=2


    E    B    A
e|--0----7----5-----|
B|--0----7----5-----|
G|--9----8----6-----|
D|--9----9----7-----|
A|--7----9----7-----|
E|--0----7----5-----|

Neck pickup, except for solos.


Intro: E


E         B             E           B
Mann mera chahay jo woh bolay meree raah mein
E         B          E           B
Mann mera sochay aaj dolay meree shaam mein


A     B
Lagay bol meray mann mein
A   B
Koi bol de!
A      B
Haal-e-dil jo meray tann mein
A   B
Koi rok de!


Sitar solo 1 (use bridge pickup to get more sitar-like sound)

e|---------------------------------------------------------------------------|
B|--9---9-9-9-9-9-9-9-9-9-9-9-7-9---7-------------9------9----9-9-12---------|
G|--9-9---------------------------9---9-9---9-9-8---9h11---------------------|
D|---------------------------------------------------------------------------|
A|---------------------------------------------------------------------------|
E|---------------------------------------------------------------------------|


e|---------------------------------------------------------------------------|
B|--7---7-9-------------7-7------7-10-9-7--------9-7-------------------------|
G|----------8-9--9-9--9------8-9----------9-8--------9-8-9--9-6-8------------|
D|---------------------------------------------------------------------------|
A|---------------------------------------------------------------------------|
E|---------------------------------------------------------------------------|


e|-------7-7-12-12-11------11------------------------------------------------|
B|--9-10----------------------12-12-10-10-9-7------7-9-7---------------------|
G|-------------------------------------------------------9-8-9---------------|
D|---------------------------------------------------------------------------|
A|---------------------------------------------------------------------------|
E|---------------------------------------------------------------------------|


E         B             E           B
Mann mera chahay jo woh bolay meree raah mein
E         B          E           B
Mann mera sochay aaj dolay meree shaam mein


A      B
Kal se rahe jo aaj
A          B
dekhe meri aah mein
A         B
Mann mera dole raat,
A         B
bole meri shaam mein.


A     B
Lagay bol meray mann mein
A   B
Koi bol de!
A      B
Haal-e-dil jo meray tann mein
A   B
Koi rok de!


E        B      E         B
Jo meray raahi, woh meray naahin
      A         B
Meray bol meree raah main
     A           B
Mann dolay meree shaam mein


E            B       E               B
Jo tann mein dekhay, kyoon mann mein sochay?
      A         B
Meray bol meree raah main
     A           B
Mann dolay meree shaam mein


A          B
Tu jo paas hai,
A            B
Woh jo saath hai.
A         B
Teri zindagi,
A         B
mere paas hai.


Sitar solo 2 (use bridge pickup to get more sitar-like sound)

e|---------------------------------------------------------------------------|
B|--9---7-7--7-7-7-7--7-7-7-9-7-------------------------------------7-7------|
G|--9-9-------------------------9-8-9--9--9-9-9-8----6-9-9--9-9-9-9----------|
D|-------------------------------------------------9-------------------------|
A|---------------------------------------------------------------------------|
E|---------------------------------------------------------------------------|


e|-----------------------------7--------------------------7-7-11-7-7---------|
B|-----7-9-7--------9-7-7----7---10-10-9-9-7---7----7-9-9------------9-9-7-7-|
G|-8-9-------9--9-9--------9-----------------9----9--------------------------|
D|---------------------------------------------------------------------------|
A|---------------------------------------------------------------------------|
E|---------------------------------------------------------------------------|


e|----9-12-12-12-11-9--------------------------------------------------------|
B|-12-----------------12-10-9---9-9-10-9-7---------9-7-----------------------|
G|-----------------------------------------9---9-9-----9-8-------------------|
D|---------------------------------------------------------------------------|
A|---------------------------------------------------------------------------|
E|---------------------------------------------------------------------------|


e|----------------------------7-----7-9--7-9-11-11-11-11-11-11-11-11---------|
B|-----7----7-9--7-9-10--9-10----10------------------------------------------|
G|-8-9----9------------------------------------------------------------------|
D|---------------------------------------------------------------------------|
A|---------------------------------------------------------------------------|
E|---------------------------------------------------------------------------|



A     B
Lagay bol meray mann mein
A   B
Koi bol de!
A      B
Haal-e-dil jo meray tann mein
A   B
Koi rok de!


E        B      E         B
Jo meray raahi, woh meray naahin
      A         B
Meray bol meree raah main
     A           B
Mann dolay meree shaam mein


E            B       E               B
Jo tann mein dekhay, kyoon mann mein sochay?
      A         B
Meray bol meree raah main
     A           B
Mann dolay meree shaam mein


E        B      E         B
Jo meray raahi, woh meray naahin
      A         B
Meray bol meree raah main
     A           B
Mann dolay meree shaam mein


E            B       E               B
Jo tann mein dekhay, kyoon mann mein sochay?
      A         B
Meray bol meree raah main
     A           B
Mann dolay meree shaam mein


A          B
Tu jo paas hai,
A            B
Woh jo saath hai.
A         B
Teri zindagi,
A         B
mere paas hai.
Tap to rate this tab
# A B C D E F G H I J K L M N O P Q R S T U V W X Y Z