Song name
# A B C D E F G H I J K L M N O P Q R S T U V W X Y Z

Noori - Kuttay Te Tu Uthay tab

Band: Noori
Song: Kuttay (Te Tho Uttay)
Album: Peeli Patti Aur Ranjha Jaani Ki Gol Dunya
Tabbed by: Ahmed Nadeem

STANDARD TUNING

[----------------------------------------]
[------------------------10-9------------]
[-9-10-9--9-10-9--9-10-9------10-9-------]
[----------------------------------------]
[----------------------------------------]
[----------------------------------------]

[----------------------------------------]
[-------------9-9h10h12p10p9-------------]
[-7-9-10-9-10----------------9-10--------]
[----------------------------------------]
[----------------------------------------]
[----------------------------------------]

[----------------10-12-13-12-10-12-10-8--]
[--------9-10-12-------------------------]
[-7-9-10---------------------------------]
[----------------------------------------]
[----------------------------------------]
[----------------------------------------]
                         [termolo pick]
[-10-8-7-8-7-5-4-1-0---------12----------]
[----------------------------------------]
[----------------------------------------]
[----------------------------------------]
[----------------------------------------]
[----------------------------------------]

(fast part)
[-131210-1210---10-------------------------------------------]
[------------13---1312-131210-12109-9109---9-----------------]
[---------------------------------------10--109-1097-97------]
[------------------------------------------------------10----]
[------------------------------------------------------------]
[------------------------------------------------------------]

[----------------------------------------]
[----------------------------------------]
[---7------------------------------------]
[-10-109-1097----------------------------]
[------------11-8-7~~~~-(let ring)-------]
[----------------------------------------]

RHYTHM

[----------------------------------------]
[----------------------------------------]
[-----9-9-7-7-10107-9--------------------]
[-7-7-x-x-x-x-x-x-x-x--------------------]
[-x-x-7-7-5-5-8-8-5-7--------------------]
[-5-5------------------------------------]
Tap to rate this tab
# A B C D E F G H I J K L M N O P Q R S T U V W X Y Z