Song name
# A B C D E F G H I J K L M N O P Q R S T U V W X Y Z

Noori - Khalla tab

Tabbed by:pistol khan

this is not the full song. im still figuring the rest out...:D

Tuning:
Intro(x2)
e|--------------------------------------------------------------------------------|
B|--------------------------------------------------------------------------------|
G|--------------------------------------------------------------------------------|
D|---------0------0---------------------------------------------------------------|
A|----2--------3-----3------0-2---------------------------------------------------|
E|-0----0---------------3-3-------------------------------------------------------|

e|---------------------------|
B|---------------------------|
G|---------7--5--------------|
D|-2-x-2---7--5--------------|
A|-2-x-2---5--3--------------|
E|-0-x-0-----------3-3--5-7--|       pm . . . . .


while the chords above are being played, u can hear this in the background
e|----10--------------------10-----------------------------------------------------|
B|--------12--------------------12-------------------------------------------------|
G|-9---------------------9----------9----------------------------------------------|
D|---------------------------------------------------------------------------------|
A|---------------------------------------------------------------------------------|
E|---------------------------------------------------------------------------------|


1st verse
e|-------------------------------------------------------|
B|-------8-----8-----8----------------8-----8-----8------|
G|----11----11----11----11--------11-----11----11----11--|
D|-0--------------------------10-------------------------|
A|-------------------------------------------------------|
E|-------------------------------------------------------|

| /  slide up
| \  slide down
| h  hammer-on
| p  pull-off
| ~  vibrato
| +  harmonic
| x  Mute note
Tap to rate this tab
 
# A B C D E F G H I J K L M N O P Q R S T U V W X Y Z