Song name
# A B C D E F G H I J K L M N O P Q R S T U V W X Y Z

Noori - Sari Raat Jaga tab

Sari Raat Jaga by Noori

INTRO/VERSE

e[---------0--------0-----------0--------------0----------]
B[--------------------------------0--------------0--------]
G[------6---------2-----------6-----6--------2-----2------]
D[----6---------2-----------6---------6----2---------2----]
A[--4---------0-----------4--------------0----------------]
E[--------------------------------------------------------]

CHORUS

e[---------------------------------------------------------]
B[---------------------------------------------------------]
G[---------------------------------------------------------]
D[-2---------9-----------7---------------------------------]
A[-2---------9-----------7------[  palm-muted   ]----------]
E[-0---------7-----------5------5-7-5-4-5-4-2-4-2----------]
   Jab Teri Aankhain So Jayain 


e[---------------------------------------------------------]
B[---------------------------------------------------------]
G[---------------------------------------------------------]
D[-2---------9-----------7---------------------------------]
A[-2---------9-----------7----------5-7--------------------]
E[-0---------7-----------5------5-7-----7------------------]
   Aur Teri Yaadein Kho Jayain


e[---------------------------------------------------------]
B[---------------------------------------------------------]
G[---------------------------------------------------------]
D[-2----------------9----------------11------------7-------]
A[-2----------------9----------------11------------7-------]
E[-0----------------7----------------9-------------5-------]
   Teray Tann MAin, Teray Mann Main, Teray Ghar Ko Aag Lag Jayay

e[---------------------------------------------------------]
B[---------------------------------------------------------]
G[---------------------------------------------------------]
D[-2----------9----------7---------------------------------]
A[-2----------9----------7---------------------------------]
E[-0----------7----------5---------------------------------]
   Aur Tujhay JAan Na Aayay!

e[---------]
B[---------]
G[---6-----]
D[---6-----]
A[---4-----]
E[---------] Then Repeat From Verse to Here.

Solo:

e[---------------------------------------------------------]
B[---------------------------------------------------------]
G[---------------------------------------------------------]
D[-----------------------3--------------------------4------]
A[-2h4-4-4-5p4-4-4-2h4-4---5-4-2h4-4-4-5p4-4-4-2h4-4-------]
E[---------------------------------------------------------]


e[---------------------------------------------------------]
B[---------------------------------------------------------]
G[---------------------------------------------------------]
D[-----------------------3---------------------------------]
A[-2h4-4-4-5p4-4-4-2h4-4---5-4-[ 2h4-4-4-5p4-4-4-2h4-4-]*--]
E[---------------------------------------------------------]

*Four Times

Then Pick Scrape

RHYTHM TO MAIN SOLO
e[---------------------------------------------------------]
B[---------------------------------------------------------]
G[-6-4-6---6-4-6---6-4-6-9-9-9-9--2-2-222--4-4-444---------]
D[-6-4-6---6-4-6---6-4-6-9-9-9-9--2-2-222--4-4-444---------]
A[-4-2-4---4-2-4---4-2-4-7-7-7-7--0-0-000--2-2-222---------]
E[---------------------------------------------------------]

LEAD(with WAH-WAH)
e[-----------------------------------------------------------------]
B[-----------------------------------------------------------------]
G[--6-6-4-6-7-10-10-11-11-9-9-11-11b13-11-s11-11-11-11-11-11-------]
D[-----------------------------------------------------------------]
A[-----------------------------------------------------------------]
E[-----------------------------------------------------------------]

e[-----------------------------------------------------------------]
B[-------------------s12-12-12-12-12-12-12s14s12-12----------------]
G[-s11-11-11-11-11-11----------------------------------------------]
D[-----------------------------------------------------------------]
A[-----------------------------------------------------------------]
E[-----------------------------------------------------------------]

e[--9--9--9--9---9--9--9--9-----9--9--9--9---9--9--9--9------------]
B[--x--x--x--x---x--x--x--x-----x--x--x--x---x--x--x--x------------]
G[--6--6--6--6---6--6--6--6-----6--6--6--6---6--6--6--6------------]
D[-----------------------------------------------------------------]
A[-----------------------------------------------------------------]
E[-----------------------------------------------------------------]

THEN REPEAT CHORUS TWICE AND END ON
e[---------]
B[---------]
G[---6-----]
D[---6-----]
A[---4-----]
E[---------]

Tap to rate this tab
# A B C D E F G H I J K L M N O P Q R S T U V W X Y Z