Song name
# A B C D E F G H I J K L M N O P Q R S T U V W X Y Z

Noosa - Island Of Mine tab

Island of Mine - Sky Barbarick of Noosa
Transcribed by Tim Ronco
http://vimeo.com/48561971
https://soundcloud.com/redbricksongs/sky-barbarick-island-of-mine


---Intro/Verse---------------------------------------------------|
e-0h2---2---------------0----------------------------------------|
B----0------0---0-0h3-------3---0-0h1---1-------1-0-----0------0-|
G--------------------0---------------0------0--------0------0----|
D----------------------------------------------------------------|
A----------------------------------------------------------------|
E-3---3---3---3---3---3---3---3---3---3---3---3---3---3---3---3--|

Wake another day, to a different sky
Some take the fast lane
But this is my life

Swim upstream to a warm place
Lay with the trees
Feel the sun on my face


---Interlude---
Note: The notes on the E and A strings are strummed (with your thumb),
not plucked. The notes on the D and G strings are plucked with your index
and/or middle finger.  This gives a nice effect with the bass notes.

   C                         G
e----------------------------------------------------|
B----------------------------------------------------|
G----9--9--9--9--9--9--9--9-----4-----4-----4-----4--|
D----------------------------5-----5-----5-----5-----|
A--10-10-10-10-10-10-10-10--5--5--5--5--5--5--5--5---|
E-/8--8--8--8--8--8--8--8---3--3--3--3--3--3--3--3---|

Ah Ah Ah Ah Ahhhhhhhh
Ah Ah Ah Ah Ahhhhhhhh


---Verse---
Crystals shine brighter on the water
My own fireworks show
One only dreamers know

Wild as the night bring me closer
Never want to feel getting older
I'm leaving time behind

---Interlude---
Ah Ah Ah Ah Ahhhhhhhh
Ah Ah Ah Ah Ahhhhhhhh

---Bridge---
Note: The bridge follows this C-G-D, C-D-Bm progression and it's kind of
open to interpretation.  I've tabbed out the basic pattern based on what
I pick out of the song and the plucking pattern in the Interlude.  By the
3rd time through the bridge, the guitar is definitely getting messier with
added notes (e.g. open B and e strings thrown into the mix).

  C                               G           D
e--------------------------------------------------------------|
B--------------------------------------------------------------|
G-------9-------9-------9-------9-----4-----4------11------11--|
D---10------10------10------10-----5-----5------12------12-----|
A-10--10--10--10--10--10--10--10--5--5--5--5--12--12--12--12---|
E-8---8---8---8---8---8---8---8---3--3--3--3--10--10--10--10---|

  C                               D               Bm
e--------------------------------------------------------------|
B--------------------------------------------------------------|
G-------9-------9-------9-------9------11------11-----7-----7--|
D---10------10------10------10-----12------12-------9----9-----|
A-10--10--10--10--10--10--10--10-12--12--12--12---9--9--9--9---|
E-8---8---8---8---8---8---8---8--10--10--10--10---7--7--7--7---|

I wake up on an island
No better place I know
I wake up on an island
Where I call home



Alternative Verse Pattern (At "Some take the fast lane")
e-0h2---2-------2-0-----0---------------------------------------|
B----0------0-------0-------3---3-0h1---1-------1-0-----0-------|
G------------------------------------0------0--------0------0---|
D------------------------0h2------------------------------------|
A---------------------------------------------------------------|
E-3---3---3---3---3---3-------3---3---3---3---3---3---3---3---3-|
Tap to rate this tab
# A B C D E F G H I J K L M N O P Q R S T U V W X Y Z