Song name
# A B C D E F G H I J K L M N O P Q R S T U V W X Y Z

Noosa - Walk On tab

Tabbed by : Matthew Willett
mattcw@live.com
This is my first ever tab.  I think most if it is right but a lot of it is timing and 
you can change a lot around.

(/) Slide Up  (\) Slide Down  (h) Hammer On  (p) Pull Off  (b) Bend (r) Release (v) Vibrato

Intro x 12 – till 1:16
E|------------------------------------------------------|
B|------------------------------------------------------|
G|--------------0-----------------4--2------------------|
D|-------0---4----4\--2------2--------4-----------------|
A|--5------------------------------------------3--5-----|
E|------------------------------------------------------|


These last three parts I use sort of interchangeably.  I think maybe a little bit is 
wrong but it’s pretty close.

1:16 – 1:35ish

E|-------------------------------------------------------------------------|
B|-------------------------------------------------------------------------|
G|-----------7------------------4----------------2---------------2---------|
D|-----7------------------4---------------2----------------2---------------|
A|--5-----5-----5----2-----2-----2--0-----0------0--0-----0-----0----------|
E|-------------------------------------------------------------------------|


1:35ish –
E|--------------------------------------------------------------|
B|--------------------------------------------------------------|
G|-----7-----7--------4-----4--------2-----2--------2-----2-----|
D|--5-----5-----5--2-----2-----2--0-----0-----0--0-----0-----0--|
A|--------------------------------------------------------------|
E|--------------------------------------------------------------|

1:35ish -
E|-----------------------------------------------------------------|
B|-----------------------------------------------------------------|
G|-----7-----7--------4-----4-------- -7-----7--------7-----7------|
D|--5-----5-----5--2-----2-----2--0-----0-----0--0-----0-----0-----|
A|-----------------------------------------------------------------|
E|-----------------------------------------------------------------|
Tap to rate this tab
 
# A B C D E F G H I J K L M N O P Q R S T U V W X Y Z