Song name
# A B C D E F G H I J K L M N O P Q R S T U V W X Y Z

Nopsajalka - Lupaan Olla tab

-------------------------------------------------------------------------------
                             Lupaan olla (intro)- Nopsajalka
-------------------------------------------------------------------------------

Tuning: EADGBe

e|-----------------------------------------------------------------|
B|--------------------------------------------------3--------------|
G|-----------3--------------------------------------3h5p3----------|
D|-------3h5---5-----------5p3-3p0---------------------------------|
A|---3h5---------------3h5---------5p3-3\1-------------------------|
E|-----------------------------------------3-----------------------|

e|-----------------------------------------------------------------|
B|------------------6h8p6------------------------------------------|
G|-----------3------7------------3h5p3-----------------------------|
D|-------3h5---5-------------3h5-------5~---3/5-3~-----------------|
A|---3h5-----------------------------------------------------------|
E|-----------------------------------------------------------------|

************************************

| /   slide up
| \   slide down
| h   hammer-on
| p   pull-off
| ~   vibrato

************************************
Tap to rate this tab
 
# A B C D E F G H I J K L M N O P Q R S T U V W X Y Z