Song name
# A B C D E F G H I J K L M N O P Q R S T U V W X Y Z

Nora - I Shouldve Sent Flowers tab

Song - I Should've Sent Flowers
Artist - Nora
Album - Dreamers and Deadmen
Tabbed by - Gregory Dunham
Tuning - CGCFAD 

the end isnt there and its not 100% correct.
                             
|---------------------------|   |-------------|--------------|
|---------------------------|   |-------------|--------------|
|---------------------------|   |-------------|--------------|
|---------------------------|   |-------------|--------------|
|--------------5-5-5p3p0----|4x |-3h5--5------|-3h5--5-------|
|--0---3---5----------------|   |----------0--|----------0---|


                                                      
|-------------|-------------|-------------------------|
|-------------|-------------|-------------------------|
|-------------|-------------|-------------------------|
|-------------|-------------|-------------------------|
|-3h5--5--5---|-3h5--5------|-3h5---------------------|6x
|-------------|----------0--|-------5-5-5-5--3-3-3-3--|

           
|--------------------------------------------|------------------------------------------|
|--------------------------------------------|---------------------------------8--------|
|--------------------------------------------|-------------------------------7---7------|
|-----------------------------4-------4------|-----------------------------6-------6----|
|---------------------------3---3-3-3---3----|---------------------------5-----------5--|4x
|-0-0-0-0-0-0-0-0-0-0-0-0-0------------------|-0-0-0-0-0-0-0-0-0-0-0-0-0----------------|
  PM                                           PM

|-------------|-------------|--------------|------------------------------------|
|-------------|-------------|--------------|------------------------------------|
|-------------|-------------|--------------|------------------------------------|
|-------------|-------------|--------------|------------------------------------|
|-3h5--5------|-3h5--5------|-3h-5--5-5-3h5|----5-----3h5-----------------------|
|----------0--|----------0--|--------------|-------0----------5-5-5-5-3-3-3-3---|


|-------------|-------------|-------------|-------------|-----------------------|
|-------------|-------------|-------------|-------------|-----------------------|
|-------------|-------------|-------------|-------------|-----------------------|
|-3/5--5------|-3/5--5------|-3/5--5--5---|-3/5--5------|-3/5-------------------|
|-5/7--7------|-5/7--7------|-5/7--7--7---|-5/7--7------|-5/7--5-5-5-5-3-3-3-3--|
|----------0--|----------0--|-------------|----------0--|------5-5-5-5-3-3-3-3--|


           
|---------------------------------------------|------------------------------------------|
|---------------------------------------------|---------------------------------8--------|
|---------------------------------------------|-------------------------------7---7------|
|-----------------------------4--------4------|-----------------------------6-------6----|
|-0-0-0-0-0-0-0-0-0-0-0-0-0-3---3-3-3---3-----|-0-0-0-0-0-0-0-0-0-0-0-0-0-5-----------5--|x4
|-0-0-0-0-0-0-0-0-0-0-0-0-0-------------------|-0-0-0-0-0-0-0-0-0-0-0-0-0----------------|
  PM                                            PM


  
|--------------------------------------------------------------------|
|--------------------------------------------------------------------|
|--------------------------------------------------------------------|
|-3-3-3-3-3-3-3-3-6-6-6-6-6-6-6-6-5-5-5-5-5-5-5-5-5-5-5-5-5-5-5-5----|
|--------------------------------------------------------------------|
|--------------------------------------------------------------------|
  PM
Tap to rate this tab
 
# A B C D E F G H I J K L M N O P Q R S T U V W X Y Z