Song name
# A B C D E F G H I J K L M N O P Q R S T U V W X Y Z

Nora - Nobody Takes Pictures Of The Drummer tab

#----------------------------------PLEASE NOTE---------------------------------#
#This file is the author's own work and represents their interpretation of the #
#song. You may only use this file for private study, scholarship, or research. #
#------------------------------------------------------------------------------##

                      NOBODY TAKES PICTURES OF THE DRUMMER
                               As recorded by Nora
                     (From the 2001 Album LOSER'S INTUITION)

Words and Music by Nora
Arranged by Nora
Transcribed by jonathanonfire

Gtr I (Db Ab Db Gb Bb Eb) - 'Untitled'
Gtr II (Db Ab Db Gb Bb Eb) - 'Untitled'
Gtr III (Db Ab Db Gb Bb Eb) - 'Untitled'

 Intro
  Q.=118
  N.C.
 6/8
  Gtr III
  E E q  Q    E E q  Q
|-----x--x--|-----x--x--|
|-----------|-----------|
|-----------|-----------|
|-----x--x--|-----x--x--|
|-----x--x--|-----x--x--|
|-x-x-------|-x-x-------|


    D5  N.C.      D5  N.C.      D5  N.C.      D5  N.C.
    Gtrs I, II
    PM|           PM|           PM|           PM|
    E E  q   Q    E E  q   Q    E E  q   Q    E E  q   Q   4x
||--------------|-------------|-------------|--------------||
||o-----15--15--|------9---9--|-----12--12--|-----11--11--o||
||------18--18--|-----12--12--|-----15--15--|-----14--14---||
||--------------|-------------|-------------|--------------||
||o-0-0---------|-0-0---------|-0-0---------|-0-0---------o||
||--0-0---------|-0-0---------|-0-0---------|-0-0----------||


   "Watched your lips.."
    D5  N.C.      D5  N.C.      D5  N.C.      D5  N.C.
    PM|           PM|           PM|           PM|
    E E  q   Q    E E  q   Q    E E  q   Q    E E  q   Q   4x
||--------------|-------------|-------------|--------------||
||o-----15--15--|------9---9--|-----12--12--|-----11--11--o||
||------18--18--|-----12--12--|-----15--15--|-----14--14---||
||--------------|-------------|-------------|--------------||
||o-0-0---------|-0-0---------|-0-0---------|-0-0---------o||
||--0-0---------|-0-0---------|-0-0---------|-0-0----------||


  Gtr I
   E  E  E  E  E  E    E        E  E  E  E  E
|-------------------|-------------------------|
|-15-15-15-15-15-15-|-15-------15-15-15-15-15-|
|-18-18-18-18-18-18-|-18pb18.5r18-18-18-18-18-|
|-------------------|-------------------------|
|-------------------|-------------------------|
|-------------------|-------------------------|
|
| Gtr II
|  q     H             H.
|-------------------|-------------------------|
|-------------------|-------------------------|
|-------------------|-------------------------|
|--0----------------|-------------------------|
|--0----------------|-------------------------|
|--0----------------|-------------------------|


   E        E  E  E  E  E    E        E  E  E  E  E
|-------------------------|-------------------------|
|-15-------15-15-15-15-15-|-15-------15-15-15-15-15-|
|-18pb18.5r18-18-18-18-18-|-18pb18.5r18-18-18-18-18-|
|-------------------------|-------------------------|
|-------------------------|-------------------------|
|-------------------------|-------------------------|
|
|  H.                        H.
|-------------------------|-------------------------|
|-------------------------|-------------------------|
|-------------------------|-------------------------|
|-------------------------|-------------------------|
|-------------------------|-------------------------|
|-------------------------|-------------------------|


   "I read what you.."
    D5  F5D5F5D5  Eb5 F#EbF#F5  D5  F5D5F5D5  Eb5 F#EbF#F5
    Gtrs I, II
    E E E E E E   E E E E E E   E E E E E E   E E E E E E
||--------------|-------------|-------------|--------------||
||o-------------|-------------|-------------|-------------o||
||--------------|-------------|-------------|--------------||
||--0-0-3-0-3-0-|-1-1-4-1-4-3-|-0-0-3-0-3-0-|-1-1-4-1-4-3--||
||o-0-0-3-0-3-0-|-1-1-4-1-4-3-|-0-0-3-0-3-0-|-1-1-4-1-4-3-o||
||--0-0-3-0-3-0-|-1-1-4-1-4-3-|-0-0-3-0-3-0-|-1-1-4-1-4-3--||


    PM|           PM|           PM|           PM|
    E E E E E E   E E E E E E   E E E E E E   E E E E E E
||--------------|-------------|-------------|--------------||
||o-------------|-------------|-------------|-------------o||
||--------------|-------------|-------------|--------------||
||------3-0-3-0-|-----4-1-4-3-|-----3-0-3-0-|-----4-1-4-3--||
||o-0-0-3-0-3-0-|-1-1-4-1-4-3-|-0-0-3-0-3-0-|-1-1-4-1-4-3-o||
||--0-0-3-0-3-0-|-1-1-4-1-4-3-|-0-0-3-0-3-0-|-1-1-4-1-4-3--||


   "..those wounds."
    D5  E#D5E#D5  D#5 F#D#F#E#5 D5  E#D5E#D5  D#5  F#D#F#E#5
    Gtr I
    E H       E   E H       E   E H       E   H.            4x
||--------------|-------------|-------------|---------------||
||o-------------|-------------|-------------|--------------o||
||--------------|-------------|-------------|---------------||
||--0-----------|-1-----------|-0-----------|-1-------------||
||o-0-----------|-1-----------|-0-----------|-1------------o||
||--0-----------|-1-----------|-0-----------|-1-------------||
|
|   Gtr II
|   E E E E E E   E E E E E E   E E E E E E   E  E E E E E  4x
||--------------|-------------|-------------|---------------||
||o-------------|-------------|-------------|--------------o||
||--------------|-------------|-------------|---------------||
||--0-0-3-0-3-0-|-1-1-4-1-4-3-|-0-0-3-0-3-0-|-1--1-4-1-4-3--||
||o-0-0-3-0-3-0-|-1-1-4-1-4-3-|-0-0-3-0-3-0-|-1--1-4-1-4-3-o||
||--0-0-3-0-3-0-|-1-1-4-1-4-3-|-0-0-3-0-3-0-|-1--1-4-1-4-3--||


  D5
  H.         H.         H.         H.
|---------|----------|----------|--------|
|---------|----------|----------|--------|
|---------|----------|----------|--------|
|---------|----------|----------|--------|
|---------|----------|----------|--------|
|---------|----------|----------|--------|
|
| H.        +H.        +H.        +H.
|---------|----------|----------|--------|
|---------|----------|----------|--------|
|---------|----------|----------|--------|
|-0-------|-(0)------|-(0)------|-(0)----|
|-0-------|-(0)------|-(0)------|-(0)----|
|-0-------|-(0)------|-(0)------|-(0)----|


  D5
   PM-|            PM-|            PM-|            PM-|
   E  E  q   Q     E  E  q   Q     E  E  q   Q     E  E  q   Q
|---------------|---------------|---------------|---------------|
|-------15--15--|--------9---9--|-------12--12--|-------11--11--|
|-------18--18--|-------12--12--|-------15--15--|-------14--14--|
|---------------|---------------|---------------|---------------|
|--0--0---------|--0--0---------|--0--0---------|--0--0---------|
|--0--0---------|--0--0---------|--0--0---------|--0--0---------|
|
| +H.             +H.             +H.             +H.
|---------------|---------------|---------------|---------------|
|---------------|---------------|---------------|---------------|
|---------------|---------------|---------------|---------------|
|-(0)-----------|-(0)-----------|-(0)-----------|-(0)-----------|
|-(0)-----------|-(0)-----------|-(0)-----------|-(0)-----------|
|-(0)-----------|-(0)-----------|-(0)-----------|-(0)-----------|


 "Just not that cool.."
  D5
  PM-|            PM-|           PM|             PM-|
  E  E  q   Q     E  E  q   Q    E E  q   Q      E  E  q   Q
|--------------|---------------|--------------|---------------|
|------15--15--|--------9---9--|-----12--12---|-------11--11--|
|------18--18--|-------12--12--|-----15--15---|-------14--14--|
|--------------|---------------|--------------|---------------|
|-0--0---------|--0--0---------|-0-0----------|--0--0---------|
|-0--0---------|--0--0---------|-0-0----------|--0--0---------|
|
| H.             +H.             E H        E    H.
|--------------|---------------|--------------|---------------|
|--------------|---------------|--------------|---------------|
|--------------|---------------|--------------|---------------|
|-0------------|-(0)-----------|-0------------|-12\-----------|
|-0------------|-(0)-----------|-0------------|-12\-----------|
|-0------------|-(0)-----------|-0------------|-12\-----------|


    D5
    PM-|            PM-|           PM|            PM-|
    E  E  q   Q     E  E  q   Q    E E  q   Q     E  E  q   Q   3x
||---------------|---------------|--------------|---------------||
||o------15--15--|--------9---9--|-----12--12---|------11--11--o||
||-------18--18--|-------12--12--|-----15--15---|------14--14---||
||---------------|---------------|--------------|---------------||
||o-0--0---------|--0--0---------|-0-0----------|-0--0---------o||
||--0--0---------|--0--0---------|-0-0----------|-0--0----------||
|
|   H.             +H.             E H        E   H.            3x
||---------------|---------------|--------------|---------------||
||o--------------|---------------|--------------|--------------o||
||---------------|---------------|--------------|---------------||
||--0------------|-(0)-----------|-0------------|---------------||
||o-0------------|-(0)-----------|-0------------|--------------o||
||--0------------|-(0)-----------|-0------------|---------------||


  Getting Faster Q.=123      H=H
  D5
   H.          Q    Q   Q     H.         Q    Q   Q
|-13--------|-13-----------|----------|-13-----------|
|-----------|------12------|-12-------|------12------|
|-----------|----------10--|----------|----------10--|
|-----------|--------------|----------|--------------|
|-----------|--------------|----------|--------------|
|-----------|--------------|----------|--------------|
|
|  q   H       H.             H.         H.
|-----------|--------------|----------|--------------|
|-----------|--------------|----------|--------------|
|-----------|--------------|----------|--------------|
|--0--------|--------------|----------|--------------|
|--0--------|--------------|----------|--------------|
|--0--------|--------------|----------|--------------|


  Faster Q.=126             H=H
  N.C.
   H.         Q    Q   Q     H.         Q    Q   Q
|-13-------|-13-----------|----------|-13-----------|
|----------|------12------|-12-------|------12------|
|----------|----------10--|----------|----------10--|
|----------|--------------|----------|--------------|
|----------|--------------|----------|--------------|
|----------|--------------|----------|--------------|
|
|  H.         H.             H.         H.
|----------|--------------|----------|--------------|
|----------|--------------|----------|--------------|
|----------|--------------|----------|--------------|
|----------|--------------|----------|--------------|
|----------|--------------|----------|--------------|
|----------|--------------|----------|--------------|


 Speech
  Faster Q.=129              H=H
  D5   D#5     E#5 D#5       D5   D#5     E#5 D#5
   H.           Q   Q   Q     H.           Q   Q   Q
|-13---------|-13----------|------------|-13----------|
|------------|-----12------|-12---------|-----12------|
|------------|---------10--|------------|---------10--|
|------------|-------------|------------|-------------|
|------------|-------------|------------|-------------|
|------------|-------------|------------|-------------|
|
|  Q   Q  Q     Q   Q   Q     Q   Q  Q     Q   Q   Q
|------------|-------------|------------|-------------|
|------------|-------------|------------|-------------|
|------------|-------------|------------|-------------|
|--0---1-----|--3---1------|--0---1-----|--3---1------|
|--0---1-----|--3---1------|--0---1-----|--3---1------|
|--0---1-----|--3---1------|--0---1-----|--3---1------|


  Faster Q.=132              H=H
  D5   D#5     E#5 D#5       D5   D#5     E#5 D#5
   H.           Q   Q   Q     H.           Q   Q   Q
|-13---------|-13----------|------------|-13----------|
|------------|-----12------|-12---------|-----12------|
|------------|---------10--|------------|---------10--|
|------------|-------------|------------|-------------|
|------------|-------------|------------|-------------|
|------------|-------------|------------|-------------|
|
|  Q   Q  Q     Q   Q   Q     Q   Q  Q     Q   Q   Q
|------------|-------------|------------|-------------|
|------------|-------------|------------|-------------|
|------------|-------------|------------|-------------|
|--0---1-----|--3---1------|--0---1-----|--3---1------|
|--0---1-----|--3---1------|--0---1-----|--3---1------|
|--0---1-----|--3---1------|--0---1-----|--3---1------|


  Faster Q.=135              H=H
  D5   D#5     E#5 D#5       D5   D#5     E#5 D#5
   H.           Q   Q   Q     H.           Q   Q   Q
|-13---------|-13----------|------------|-13----------|
|------------|-----12------|-12---------|-----12------|
|------------|---------10--|------------|---------10--|
|------------|-------------|------------|-------------|
|------------|-------------|------------|-------------|
|------------|-------------|------------|-------------|
|
|  Q   Q  Q     Q   Q   Q     Q   Q  Q     Q   Q   Q
|------------|-------------|------------|-------------|
|------------|-------------|------------|-------------|
|------------|-------------|------------|-------------|
|--0---1-----|--3---1------|--0---1-----|--3---1------|
|--0---1-----|--3---1------|--0---1-----|--3---1------|
|--0---1-----|--3---1------|--0---1-----|--3---1------|


  Faster Q.=137
  D5   D#5     E#5 D#5       D5   D#5     E#5 D#5
   H.           Q   Q   Q     H.           Q   Q   Q
|-13---------|-13----------|------------|-13----------|
|------------|-----12------|-12---------|-----12------|
|------------|---------10--|------------|---------10--|
|------------|-------------|------------|-------------|
|------------|-------------|------------|-------------|
|------------|-------------|------------|-------------|
|
|  Q   Q  Q     Q   Q   Q     Q   Q  Q     Q   Q   Q
|------------|-------------|------------|-------------|
|------------|-------------|------------|-------------|
|------------|-------------|------------|-------------|
|--0---1-----|--3---1------|--0---1-----|--3---1------|
|--0---1-----|--3---1------|--0---1-----|--3---1------|
|--0---1-----|--3---1------|--0---1-----|--3---1------|


    D5 D#5     E#5D#5     D5 D#5     E#5D#5
    Gtrs I, II
    Q  Q  Q    Q  Q  Q    Q  Q  Q    Q  Q  Q   4x
||-----------|----------|----------|-----------||
||o----------|----------|----------|----------o||
||-----------|----------|----------|-----------||
||--0--1-----|-3--1-----|-0--1-----|-3--1------||
||o-0--1-----|-3--1-----|-0--1-----|-3--1-----o||
||--0--1-----|-3--1-----|-0--1-----|-3--1------||


  Slightly Slower Q.=132
  D5Bb5 D5G5    D5Bb5 D5G5
                             4/8
  E E E E E E   E E E E E E   H
|-------------|-------------|------|
|-------------|-------------|------|
|-------------|-------------|------|
|-0-8---0-5---|-0-8---0-5---|------|
|-0-8---0-5---|-0-8---0-5---|------|
|-0-8---0-5---|-0-8---0-5---|------|


   "My see-through-hero.."
                               1.,2.,3.     4.
    D5Bb5 D5G5    D5Bb5 D5G5    G5F5E5D5    D5EbF5
   6/8                         4/8         3/8
    E E E E E E   E E E E E E   E E E E  4x E E E
||--------------|-------------|----------||-------|
||o-------------|-------------|---------o||-------|
||--------------|-------------|----------||-------|
||--0-8---0-5---|-0-8---0-5---|-5-3-2-0--||-0-1-3-|
||o-0-8---0-5---|-0-8---0-5---|-5-3-2-0-o||-0-1-3-|
||--0-8---0-5---|-0-8---0-5---|-5-3-2-0--||-0-1-3-|


   "You can't block.."
    D5      C5 BbA5    D5      C5 BbA5
   4/4
    Gtr I
       PM                 PM
    Q  E  E  E E E E   Q  E  E  E E E E
||-------------------|------------------|
||o------------------|------------------|
||-------------------|------------------|
||--0----12-10-8-7---|-0----12-10-8-7---|
||o-0--0-12-10-8-7---|-0--0-12-10-8-7---|
||--0--0-12-10-8-7---|-0--0-12-10-8-7---|
|
|   Gtr II
|      PM                 PM
|   Q  E  E  E E E E   Q  E  E  E E E E
||-------------------|------------------|
||o------------------|------------------|
||-------------------|------------------|
||--0----12-10-8-7---|-0----12-10-8-7---|
||o-0--0-12-10-8-7---|-0--0-12-10-8-7---|
||--0--0-12-10-8-7---|-0--0-12-10-8-7---|


  D5      C5 BbA5    Bb5
     PM
  Q  E  E  E E E E    E  E  E  E  E  E  E  E   4x
|------------------|---------------------------||
|------------------|--------------------------o||
|------------------|-10-10-10-10-10-10-10-10---||
|-0----12-10-8-7---|---------------------------||
|-0--0-12-10-8-7---|--8--8--8--8--8--8--8--8--o||
|-0--0-12-10-8-7---|---------------------------||
|
|    PM
| Q  E  E  E E E E    E  E  E  E  E  E  E  E   4x
|------------------|---------------------------||
|------------------|--------------------------o||
|------------------|---------------------------||
|-0----12-10-8-7---|--8--8--8--8--8--8--8--8---||
|-0--0-12-10-8-7---|--8--8--8--8--8--8--8--8--o||
|-0--0-12-10-8-7---|--8--8--8--8--8--8--8--8---||


  N.C.
   E  E  E  E  E  E  E  E    E  E  E  E  E  E  E  E    E  E  E  E  E  E  E  E
|-------------------------|-------------------------|-------------------------|
|-------------------------|-------------------------|-------------------------|
|-10-10-10-10-10-10-10-10-|-10-10-10-10-10-10-10-10-|-10-10-10-10-10-10-10-10-|
|-------------------------|-------------------------|-------------------------|
|--8--8--8--8--8--8--8--8-|--8--8--8--8--8--8--8--8-|--8--8--8--8--8--8--8--8-|
|-------------------------|-------------------------|-------------------------|
|
|  E  E  E  E  E  E  E  E    E  E  E  E  E  E  E  E    E  E  E  E  E  E  E  E
|-------------------------|-------------------------|-------------------------|
|-------------------------|-------------------------|-------------------------|
|-------------------------|-------------------------|-------------------------|
|--8--8--8--8--8--8--8--8-|--8--8--8--8--8--8--8--8-|--8--8--8--8--8--8--8--8-|
|--8--8--8--8--8--8--8--8-|--8--8--8--8--8--8--8--8-|--8--8--8--8--8--8--8--8-|
|--8--8--8--8--8--8--8--8-|--8--8--8--8--8--8--8--8-|--8--8--8--8--8--8--8--8-|


 Outro
  Losing Speed Q.=129         H.=H
  D5  N.C.      D5  N.C.      D5  N.C.      D5  N.C.
 6/8
  Gtrs I, II
  PM|           PM|           PM|           PM|
  E E  q   Q    E E  q   Q    E E  q   Q    E E  q   Q
|-------------|-------------|-------------|-------------|
|-----15--15--|------9---9--|-----12--12--|-----11--11--|
|-----18--18--|-----12--12--|-----15--15--|-----14--14--|
|-------------|-------------|-------------|-------------|
|-0-0---------|-0-0---------|-0-0---------|-0-0---------|
|-0-0---------|-0-0---------|-0-0---------|-0-0---------|


  Slower Q.=126               H.=H
  D5  N.C.      D5  N.C.      D5  N.C.      D5  N.C.
  PM|           PM|           PM|           PM|
  E E  q   Q    E E  q   Q    E E  q   Q    E E  q   Q
|-------------|-------------|-------------|-------------|
|-----15--15--|------9---9--|-----12--12--|-----11--11--|
|-----18--18--|-----12--12--|-----15--15--|-----14--14--|
|-------------|-------------|-------------|-------------|
|-0-0---------|-0-0---------|-0-0---------|-0-0---------|
|-0-0---------|-0-0---------|-0-0---------|-0-0---------|


  Slower Q.=123               H.=H
  D5  N.C.      D5  N.C.      D5  N.C.      D5  N.C.
  PM|           PM|           PM|           PM|
  E E  q   Q    E E  q   Q    E E  q   Q    E E  q   Q
|-------------|-------------|-------------|-------------|
|-----15--15--|------9---9--|-----12--12--|-----11--11--|
|-----18--18--|-----12--12--|-----15--15--|-----14--14--|
|-------------|-------------|-------------|-------------|
|-0-0---------|-0-0---------|-0-0---------|-0-0---------|
|-0-0---------|-0-0---------|-0-0---------|-0-0---------|


  Slower Q.=120               H.=H
  D5  N.C.      D5  N.C.      D5  N.C.      D5  N.C.
  PM|           PM|           PM|           PM|
  E E  q   Q    E E  q   Q    E E  q   Q    E E  q   Q
|-------------|-------------|-------------|-------------|
|-----15--15--|------9---9--|-----12--12--|-----11--11--|
|-----18--18--|-----12--12--|-----15--15--|-----14--14--|
|-------------|-------------|-------------|-------------|
|-0-0---------|-0-0---------|-0-0---------|-0-0---------|
|-0-0---------|-0-0---------|-0-0---------|-0-0---------|


  Original Tempo Q.=118
  D5  N.C.      D5  N.C.      D5  N.C.      D5  N.C.
  PM|           PM|           PM|           PM|
  E E  q   Q    E E  q   Q    E E  q   Q    E E  q   Q
|-------------|-------------|-------------|-------------|
|-----15--15--|------9---9--|-----12--12--|-----11--11--|
|-----18--18--|-----12--12--|-----15--15--|-----14--14--|
|-------------|-------------|-------------|-------------|
|-0-0---------|-0-0---------|-0-0---------|-0-0---------|
|-0-0---------|-0-0---------|-0-0---------|-0-0---------|


  N.C.
                            >
   +H.         +H.         +H.         +H.
|-----------|-----------|-----------|---------|
|-(11)------|-(11)------|-(11)------|-(11)----|
|-(14)------|-(14)------|-(14)------|-(14)----|
|-----------|-----------|-----------|---------|
|-----------|-----------|-----------|---------|
|-----------|-----------|-----------|---------|


  N.C.
   +H.         +H.         +H.         +H.
|-----------|-----------|-----------|---------*|
|-(11)------|-(11)------|-(11)------|-(11)----*|
|-(14)------|-(14)------|-(14)------|-(14)----*|
|-----------|-----------|-----------|---------*|
|-----------|-----------|-----------|---------*|
|-----------|-----------|-----------|---------*|


Duration Legend
---------------
W - whole; H - half; Q - quarter; E - 8th; S - 16th; T - 32nd; X - 64th; a - acciaccatura
+ - note tied to previous; . - note dotted; .. - note double dotted
Uncapitalized letters represent notes that are staccato (1/2 duration)
Irregular groupings are notated above the duration line
Duration letters will always appear directly above the note/fret number it represents the
duration for.  Duration letters with no fret number below them represent rests.  Multi-
bar rests are notated in the form Wxn, where n is the number of bars to rest for.  Low
melody durations appear below the staff

Tablature Legend
----------------
 h   - hammer-on
 p   - pull-off
 b   - bend
 pb  - pre-bend
 r   - bend release (if no number after the r, then release immediately)
 /\  - slide into or out of (from/to "nowhere")
 s   - legato slide
 S   - shift slide
  - natural harmonic
[n]  - artificial harmonic
n(n) - tapped harmonic
 ~   - vibrato
 tr  - trill
 T   - tap
 TP  - trem. picking
 PM  - palm muting
\n/  - tremolo bar dip; n = amount to dip
 \n  - tremolo bar down
 n/  - tremolo bar up
/n\  - tremolo bar inverted dip
 =   - hold bend; also acts as connecting device for hammers/pulls
 <>  - volume swell (louder/softer)
 x   - on rhythm slash represents muted slash
 o   - on rhythm slash represents single note slash

Misc Legend
-----------
 |  - bar
||  - double bar
||o - repeat start
o|| - repeat end
*|  - double bar (ending)
 :  - bar (freetime)
 $  - Segno
 &  - Coda
Tempo markers -  = BPM(8/16=s8/s16), where s8 = swing 8ths, s16 = swing 16ths


***************************************************************************************
* Generated using Power Tab Editor by Brad Larsen - http://powertab.guitarnetwork.org *
***************************************************************************************
Tap to rate this tab
# A B C D E F G H I J K L M N O P Q R S T U V W X Y Z