Song name
# A B C D E F G H I J K L M N O P Q R S T U V W X Y Z

Nora - For The Travelers tab

Help us improve GuitareTab! Take a short survey!
#----------------------------------PLEASE NOTE---------------------------------#
#This file is the author's own work and represents their interpretation of the #
#song. You may only use this file for private study, scholarship, or research. #
#------------------------------------------------------------------------------##

                                FOR THE TRAVELERS
                               As recorded by Nora
                     (From the 2005 Album LOSER'S INTUITION)

Words and Music by Nora
Arranged by Nora
Transcribed by Jonathan Rose

Gtr I (Db Ab Db Gb Bb Eb) - 'Untitled'
Gtr II (Db Ab Db Gb Bb Eb) - 'Untitled'
Gtr III (Db Ab Db Gb Bb Eb) - 'Untitled'

 Intro
  Dancefight Q=189
  N.C.                    G5F5E5D5
 2/4                     5/8
  Gtrs I, II
  q  q    q  q    q  Q    E E E Q
|-------|-------|-------|----------||
|-4--4--|-4--4--|-4-----|----------||
|-7--7--|-7--7--|-7-----|----------||
|-------|-------|-------|----------||
|-------|-------|-------|-5-3-2-0--||
|-------|-------|-------|-5-3-2-0--||


   "You hear it."
    D5Eb5D5C5 D5   BbD5  C5 D5  F5D5G5E5D5
   4/4
    PM                      PM|         PM-
    E  E E  E  E E E E    E E E E E E E E
||---------------------|------------------|
||o--------------------|------------------|
||---------------------|------------------|
||---------------------|------------------|
||o-0-13-0-10-12-0-8-0-|-10-0-0-3-0-5-2-0-|
||--0-13-0-10-12-0-8-0-|-10-0-0-3-0-5-2-0-|


    Eb5D5C5 D5   BbD5  C5 D5  G5F5E5D5
 -|                       PM|       PM
  E  E E  E  E E E E    E E E E E E Q    4x
|--------------------|-------------------||
|--------------------|------------------o||
|--------------------|-------------------||
|--------------------|-------------------||
|-0-13-0-10-12-0-8-0-|-10-0-0-5-3-2-0---o||
|-0-13-0-10-12-0-8-0-|-10-0-0-5-3-2-0----||


   "We're not going to save.."
    D5
   2/2
    Gtrs I, II
    +W                  +W
||--------------------|-------------------|
||o-------------------|-------------------|
||--------------------|-------------------|
||--------------------|-------------------|
||o-(0)---------------|-(0)---------------|
||--(0)---------------|-(0)---------------|
|
|   Gtr III
|    E  E E E E E E E    E  E E E E E E E
||--------------------|-------------------|
||o-------------------|-------------------|
||---7--7-7-7-7-7-7-7-|--7--7-7-7-7-7-7-7-|
||---x--x-x-x-x-x-x-x-|--x--x-x-x-x-x-x-x-|
||o--5--5-5-5-5-5-5-5-|--5--5-5-5-5-5-5-5-|
||--------------------|-------------------|


                      1.,2.,3.
                                G5F5E5D5
  +W                  +H        E E E E   4x
|-------------------|---------------------||
|-------------------|--------------------o||
|-------------------|---------------------||
|-------------------|---------------------||
|-(0)---------------|-(0)-------5-3-2-0--o||
|-(0)---------------|-(0)-------5-3-2-0---||
|
|  E  E E E E E E E    E  E E E E E E E   4x
|-------------------|---------------------||
|-------------------|--------------------o||
|--7--7-7-7-7-7-7-7-|--7--7-7-7-7-7-7-7---||
|--x--x-x-x-x-x-x-x-|--x--x-x-x-x-x-x-x---||
|--5--5-5-5-5-5-5-5-|--5--5-5-5-5-5-5-5--o||
|-------------------|---------------------||


  4.
  Eb5                G5 G#5  A5 Bb5
 2/4
  Gtrs I, II
    PM|     PM|
  E E E E   E E Q    Q  Q    Q  Q
|---------|--------|-------|-------||
|---------|--------|-------|-------||
|---------|--------|-------|-------||
|-8-----8-|-----8--|-------|-------||
|-6-----6-|-----6--|-5--6--|-7--8--||
|---0-0---|-0-0----|-5--6--|-7--8--||


   Breakdown
    N.C.
   4/4
    PM     PM       PM     PM       PM     PM       PM     PM
    E Q  E E Q  E   E Q  E E Q  E   E Q  E E Q  E   E Q  E E Q  E
||----------------|---------------|---------------|-----------------||
||o---------------|---------------|---------------|----------------o||
||----7--7---7--7-|---7--7---7--7-|---7--7---7--7-|---7--7---7--7---||
||----x--x---x--x-|---x--x---x--x-|---x--x---x--x-|---x--x---x--x---||
||o---5--5---5--5-|---5--5---5--5-|---5--5---5--5-|---5--5---5--5--o||
||--0------0------|-0------0------|-0------0------|-0------0--------||


 "We can learn to breathe.."
  C5                            G5 F#5
 2/4
  E E E E   E E E E   E E E E   Q  Q
|---------|---------|---------|-------|
|---------|---------|---------|-------|
|---------|---------|---------|-------|
|-5-5-5-5-|-5-5-5-5-|-5-5-5-5-|-------|
|-3-3-3-3-|-3-3-3-3-|-3-3-3-3-|-5--4--|
|---------|---------|---------|-5--4--|


    N.C.                            C5                        G5 F#5
   4/4
    PM     PM       PM     PM
    E Q  E E Q  E   E Q  E E Q  E   E E E E E E E E   E E E E Q  Q    3x
||----------------|---------------|-----------------|-----------------||
||o---------------|---------------|-----------------|----------------o||
||----7--7---7--7-|---7--7---7--7-|-----------------|-----------------||
||----x--x---x--x-|---x--x---x--x-|-5-5-5-5-5-5-5-5-|-5-5-5-5---------||
||o---5--5---5--5-|---5--5---5--5-|-3-3-3-3-3-3-3-3-|-3-3-3-3-5--4---o||
||--0------0------|-0------0------|-----------------|---------5--4----||


   "Breathe the smoke!"
    F#b5                      G5 F#5  F#b5                      G5 F#5
      PM--|   PM--|     PM--|           PM--|   PM--|     PM--|
    E E E E E E E E   E E E E Q  Q    E E E E E E E E   E E E E Q  Q
||------------------|---------------|-----------------|---------------|
||o-----------------|---------------|-----------------|---------------|
||--5-------5-------|-5-------------|-5-------5-------|-5-------------|
||--4-------4-------|-4-------------|-4-------4-------|-4-------------|
||o---3-3-3---3-3-3-|---3-3-3-5--4--|---3-3-3---3-3-3-|---3-3-3-5--4--|
||------------------|---------5--4--|-----------------|---------5--4--|


  F#b5                      G5 F#5  G5 F#5G5 F#5  G5 G#5G5 F#5
    PM--|   PM--|     PM--|
  E E E E E E E E   E E E E Q  Q    Q  Q  Q  Q    Q  Q  Q  Q
|-----------------|---------------|-------------|---------------||
|-----------------|---------------|-------------|--------------o||
|-5-------5-------|-5-------------|-------------|---------------||
|-4-------4-------|-4-------------|-------------|---------------||
|---3-3-3---3-3-3-|---3-3-3-5--4--|-5--4--5--4--|-5--6--5--4---o||
|-----------------|---------5--4--|-5--4--5--4--|-5--6--5--4----||


  G5 F#5G5 F#5  G5 G#5G5 F#5  G5   G#5    A5   Bb5
  Q  Q  Q  Q    Q  Q  Q  Q    H    H      H    H
|-------------|-------------|-----------|-----------||
|-------------|-------------|-----------|-----------||
|-------------|-------------|-----------|-----------||
|-------------|-------------|-----------|-----------||
|-5--4--5--4--|-5--6--5--4--|-5----6----|-7----8----||
|-5--4--5--4--|-5--6--5--4--|-5----6----|-7----8----||


   "It's in a thousand.."
    D5
    PM---------------------------------------------------
    E E E E E E E E   E E E E E E E E   E E E E E E E E
||------------------|-----------------|-----------------|
||o-----------------|-----------------|-----------------|
||------------------|-----------------|-----------------|
||------------------|-----------------|-----------------|
||o-0-0-0-0-0-0-0-0-|-0-0-0-0-0-0-0-0-|-0-0-0-0-0-0-0-0-|
||--0-0-0-0-0-0-0-0-|-0-0-0-0-0-0-0-0-|-0-0-0-0-0-0-0-0-|


  1.,2.,3.           4.
                            G5F5E5D5
                    9/8
 -----------|
  E E E E E E Q   4x E Q.   E E E Q
|-----------------||-------------------||
|----------------o||-------------------||
|-----------------||-------------------||
|-----------------||-------------------||
|-0-0-0-0-0-0----o||-0------5-3-2-0----||
|-0-0-0-0-0-0-----||-0------5-3-2-0----||


   "You hear it."
    D5Eb5D5C5 D5   BbD5  C5 D5  F5D5G5E5D5
   4/4
    PM                      PM|         PM-
    E  E E  E  E E E E    E E E E E E E E
||---------------------|------------------|
||o--------------------|------------------|
||---------------------|------------------|
||---------------------|------------------|
||o-0-13-0-10-12-0-8-0-|-10-0-0-3-0-5-2-0-|
||--0-13-0-10-12-0-8-0-|-10-0-0-3-0-5-2-0-|


    Eb5D5C5 D5   BbD5  C5 D5  G5F5E5D5
 -|                       PM|       PM
  E  E E  E  E E E E    E E E E E E Q    4x
|--------------------|-------------------||
|--------------------|------------------o||
|--------------------|-------------------||
|--------------------|-------------------||
|-0-13-0-10-12-0-8-0-|-10-0-0-5-3-2-0---o||
|-0-13-0-10-12-0-8-0-|-10-0-0-5-3-2-0----||


  D5
 2/2
                                     PM|
  +W           +W           +H.      E E
|------------|------------|--------------||
|------------|------------|--------------||
|------------|------------|--------------||
|------------|------------|--------------||
|-(0)--------|-(0)--------|-(0)------0-0-||
|-(0)--------|-(0)--------|-(0)------0-0-||


 "I remember these roads.."
  D5N.CD5  N.CD5    N.CD5  N.CD5      N.D5  N.CD5    N.CD5  N.CD5
  PM   PM|    PM--|    PM|    PM----|   PM|    PM--|    PM|    PM
  E Q  E E Q  E   E Q  E E Q  E   E E E E E Q  E   E Q  E E Q  E
|---------------|---------------|----------------|----------------|
|---------------|---------------|----------------|----------------|
|---6------5----|---6------5----|-----6-----5----|---6------5-----|
|---x------x----|---x------x----|-----x-----x----|---x------x-----|
|-0-4--0-0-3--0-|-0-4--0-0-3--0-|-0-0-4-0-0-3--0-|-0-4--0-0-3--0--|
|-0----0-0----0-|-0----0-0----0-|-0-0---0-0----0-|-0----0-0----0--|


    D5  N.D5  N.CD5    N.CD5  N.CD5      N.D5  N.CD5    N.CD5  N.CD5
    PM|   PM|    PM--|    PM|    PM----|   PM|    PM--|    PM|    PM
    E E E E E Q  E   E Q  E E Q  E   E E E E E Q  E   E Q  E E Q  E  3x
||-----------------|---------------|----------------|----------------||
||o----------------|---------------|----------------|---------------o||
||------6-----5----|---6------5----|-----6-----5----|---6------5-----||
||------x-----x----|---x------x----|-----x-----x----|---x------x-----||
||o-0-0-4-0-0-3--0-|-0-4--0-0-3--0-|-0-0-4-0-0-3--0-|-0-4--0-0-3--0-o||
||--0-0---0-0----0-|-0----0-0----0-|-0-0---0-0----0-|-0----0-0----0--||


  D5  N.C.
 1/2
  Gtr I
  PM|                            ~~~~~~~~~~
  E E E E   E E E E    E  E  E   E     +H
|---------|---------|---------------|---------||
|---------|---------|---------------|---------||
|-----6-6-|-6-5-5-5-|-11-11-11-[10]-|-(10)----||
|-----x-x-|-x-x-x-x-|--x--x--x------|---------||
|-0-0-4-4-|-4-3-3-3-|--9--9--9------|---------||
|-0-0-----|---------|---------------|---------||
|
| Gtr II
| PM|
| E E E E   E E E E    E  E  E   E     +H
|---------|---------|---------------|---------||
|---------|---------|--7--7--7------|---------||
|-----6-6-|-6-5-5-5-|--x--x--x---5--|--(5)----||
|-----x-x-|-x-x-x-x-|--4--4--4---x--|--(x)----||
|-0-0-4-4-|-4-3-3-3-|------------3--|--(3)----||
|-0-0-----|---------|---------------|---------||


   "For the travelers!"
    D5
   2/2
    Gtrs I, II
    Q  H    E E   +E  E Q  H      Q  H    E E   +E  E Q  H
||--------------|---------------|-------------|----------------||
||o-------------|---------------|-------------|---------------o||
||--------------|---------------|-------------|----------------||
||--------------|---------------|-------------|----------------||
||o-0---------0-|-(0)-0-0-------|-0---------0-|-(0)-0-0-------o||
||--0---------0-|-(0)-0-0-------|-0---------0-|-(0)-0-0--------||


 Outro
  D5
  Gtrs I, II
  Q   H       E E   +E  E Q   H         Q   H       E E   +E  E Q   H
|-----------------|-------------------|-----------------|--------------------|
|-----------------|-------------------|-----------------|--------------------|
|-----------------|-------------------|-----------------|--------------------|
|-----------------|-------------------|-----------------|--------------------|
|-0-------------0-|-(0)-0-0-----------|-0-------------0-|-(0)-0-0------------|
|-0-------------0-|-(0)-0-0-----------|-0-------------0-|-(0)-0-0------------|
|
| Gtr III
| E E E E E E E E    E  E E E E E E E   E E E E E E E E    E  E E E E E E E
|-----------------|-------------------|-----------------|--------------------|
|-----------------|-------------------|-----------------|--------------------|
|-7-7-7-7-7-7-7-7-|--7--7-7-7-7-7-7-7-|-7-7-7-7-7-7-7-7-|--7--7-7-7-7-7-7-7--|
|-x-x-x-x-x-x-x-x-|--x--x-x-x-x-x-x-x-|-x-x-x-x-x-x-x-x-|--x--x-x-x-x-x-x-x--|
|-5-5-5-5-5-5-5-5-|--5--5-5-5-5-5-5-5-|-5-5-5-5-5-5-5-5-|--5--5-5-5-5-5-5-5--|
|-----------------|-------------------|-----------------|--------------------|


  D5
  Q   H       E E   +E  E Q   H         Q   H       E E   +E  E Q  H
|-----------------|-------------------|-----------------|---------------*|
|-----------------|-------------------|-----------------|---------------*|
|-----------------|-------------------|-----------------|---------------*|
|-----------------|-------------------|-----------------|---------------*|
|-0-------------0-|-(0)-0-0-----------|-0-------------0-|-(0)-0-0-------*|
|-0-------------0-|-(0)-0-0-----------|-0-------------0-|-(0)-0-0-------*|
|
| E E E E E E E E    E  E E E E E E E   E E E E E E E E    W
|-----------------|-------------------|-----------------|---------------*|
|-----------------|-------------------|-----------------|---------------*|
|-7-7-7-7-7-7-7-7-|--7--7-7-7-7-7-7-7-|-7-7-7-7-7-7-7---|---------------*|
|-x-x-x-x-x-x-x-x-|--x--x-x-x-x-x-x-x-|-x-x-x-x-x-x-x---|---------------*|
|-5-5-5-5-5-5-5-5-|--5--5-5-5-5-5-5-5-|-5-5-5-5-5-5-5---|---------------*|
|-----------------|-------------------|-----------------|---------------*|


Duration Legend
---------------
W - whole; H - half; Q - quarter; E - 8th; S - 16th; T - 32nd; X - 64th; a - acciaccatura
+ - note tied to previous; . - note dotted; .. - note double dotted
Uncapitalized letters represent notes that are staccato (1/2 duration)
Irregular groupings are notated above the duration line
Duration letters will always appear directly above the note/fret number it represents the
duration for.  Duration letters with no fret number below them represent rests.  Multi-
bar rests are notated in the form Wxn, where n is the number of bars to rest for.  Low
melody durations appear below the staff

Tablature Legend
----------------
 h   - hammer-on
 p   - pull-off
 b   - bend
 pb  - pre-bend
 r   - bend release (if no number after the r, then release immediately)
 /\  - slide into or out of (from/to "nowhere")
 s   - legato slide
 S   - shift slide
  - natural harmonic
[n]  - artificial harmonic
n(n) - tapped harmonic
 ~   - vibrato
 tr  - trill
 T   - tap
 TP  - trem. picking
 PM  - palm muting
\n/  - tremolo bar dip; n = amount to dip
 \n  - tremolo bar down
 n/  - tremolo bar up
/n\  - tremolo bar inverted dip
 =   - hold bend; also acts as connecting device for hammers/pulls
 <>  - volume swell (louder/softer)
 x   - on rhythm slash represents muted slash
 o   - on rhythm slash represents single note slash

Misc Legend
-----------
 |  - bar
||  - double bar
||o - repeat start
o|| - repeat end
*|  - double bar (ending)
 :  - bar (freetime)
 $  - Segno
 &  - Coda
Tempo markers -  = BPM(8/16=s8/s16), where s8 = swing 8ths, s16 = swing 16ths


***************************************************************************************
* Generated using Power Tab Editor by Brad Larsen - http://powertab.guitarnetwork.org *
***************************************************************************************
Related for For The Travelers tab