Song name
# A B C D E F G H I J K L M N O P Q R S T U V W X Y Z

Norah Jones - Be My Somebody tab

Hallo, my name is Vladimir, Im from Serbia.
This solo isnt hard...



          Norah Jones - Be my somebody
          (album: Not Too Late, 2007)



Tabbed by: Chorbay
Email: tordajav@yahoo.com


Solo starts at 1:37


e|---------------0-0-0---2/4---4\2-0-0-------7-7-7-2/4-4---4\2-2---4------------|
B|---0-0-5-5-0-0-5-5-5-----------------0h2---------------------------7\5-5\2-2--|
G|---4-4-4-4-4-4-4-4-4----------------------------------------------------------|
D|---6-6-6-6-6-6-6-6-6----------------------------------------------------------|
A|------------------------------------------------------------------------------|
E|------------------------------------------------------------------------------|


e|------------2/4-----------4p3h4-9-4\2----------------------------------------------------|
B|-----4-4/5------7\5-3/4---------------5\2---1/2--5-3-1-0-----0---------------0-----------|
G|---4---------------------------------------2---------------1---2-1-------1-2---2-1-------|
D|--------------------------------------------------------------------2-4------------4-2---|
A|-----------------------------------------------------------------------------------------|
E|-----------------------------------------------------------------------------------------|


Solo ends at 2:09

| /  slide up
| \  slide down
| h  hammer-on
| p  pull-off
| ~  vibrato
| +  harmonic
| x  Mute note


Any comments post me at tordajav@yahoo.com 
Tap to rate this tab
# A B C D E F G H I J K L M N O P Q R S T U V W X Y Z