Song name
# A B C D E F G H I J K L M N O P Q R S T U V W X Y Z

Norah Jones - Seven Years tab

Hallo, my name is Vladimir, Im from Serbia.




          Norah Jones - Seven years
      (album: Come Away With Me, 2002)



Tabbed by: Chorbay
Email: tordajav@yahoo.com


Solo starts at 1:14


e|----------------------------------------------------------0-3------------------|
B|---5/8--8-8--6-6\5--3/5-5--5p3--1h3---------1-1--3~-1---1-----3/5--5p3---------|
G|------------------------------5------0--------------------------------5---0h2--|
D|-------------------------------------------------------------------------------|
A|-------------------------------------------------------------------------------|
E|-------------------------------------------------------------------------------|


e|-------------------------------------------------------------------------------|
B|---------------5-6-6/8--8-8-8/12--10\8--8-8\5--5p3---3~------------------------|
G|---0-2/5--5-5-5-5-5-------------------------------5----------------------------|
D|-------------------------------------------------------------------------------|
A|-------------------------------------------------------------------------------|
E|-------------------------------------------------------------------------------|


e|-------------------------------------------------------------------------------|
B|----------1-3/5--5p3---5/6-----1-3/5--5p3--3-----------------------------------|
G|---0-0-0h2----------5-------0h2----------5------0-0-2-0------------------------|
D|--------------------------------------------------------3p2-0------------------|
A|--------------------------------------------------------------3----0-2-3-------|
E|-----------------------------------------------------------------3-------------|


Solo ends at 1:42


| /  slide up
| \  slide down
| h  hammer-on
| p  pull-off
| ~  vibrato
| +  harmonic
| x  Mute note


Any comments post me at tordajav@yahoo.com 
Tap to rate this tab
# A B C D E F G H I J K L M N O P Q R S T U V W X Y Z