Song name
# A B C D E F G H I J K L M N O P Q R S T U V W X Y Z

Norah Jones - Until The End tab

Help us improve GuitareTab! Take a short survey!
Hallo, my name is Vladimir, Im from Serbia.
Solo goes just like this:



          Norah Jones - Until the end
          (album: Not Too Late, 2007)



Tabbed by: Chorbay
Email: tordajav@yahoo.com


Solo starts at 2:42


e|---3-3/5-3-3--------3-----------------------------------------3--3/5-8--5-----|
B|-------------3h5------5---------------5-3-1------1-1/3----3/5----5/6-----6-5--|
G|-------------5----------7-7/9\0-0h1---5-----0h2---------0--------5/5----------|
D|--------------------------------------6---------------------------------------|
A|------------------------------------------------------------------------------|
E|------------------------------------------------------------------------------|


e|-------------3----------------------------3-----------------------|
B|---6-3--5-1---3-------------1h3---1---3-----3/5--3-1--------------|
G|---x-----------------5-7---2----2--------------------0------------|
D|---x-------------5-6-----------------------------------3-0h2------|
A|------------------------------------------------------------------|
E|------------------------------------------------------------------|


Solo ends at 3:14

| /  slide up
| \  slide down
| h  hammer-on
| x  Mute note

Any comments post me at tordajav@yahoo.com
Related for Until The End tab