Song name
# A B C D E F G H I J K L M N O P Q R S T U V W X Y Z

Norah Jones - Lonestar tab

-------------------------------------------------------------------------------
			        LONESTAR - Norah Jones
-------------------------------------------------------------------------------

Rhythm Guitar:
e|-----0-------0---|-----1-------1---|-----0-------0---|-----0-------0---|
B|-----1-------1---|-----1-------1---|-----1-------1---|-----1-------1---|
G|-----0-------0---|-----2-------2---|-----0-------0---|-----0-------0---|
D|-----2-------2---|-----3-------3---|-----2-------2---|-----2-------2---|
A|-3-------3-------|-----------------|-3---------------|-3-------2---0---|
E|-----------------|-1-------1-------|---------3-------|-----------------|

e|-----3-------3---|-----0-------0---|-----0-------0---|-----2-------2---|
B|-----0-------0---|-----0-------0---|-----1-------1---|-----1-------1---|
G|-----0-------0---|-----1-------1---|-----2-------2---|-----2-------2---|
D|-----0-------0---|-----2-------2---|-----2-------2---|-----0-------0---|
A|-----------------|-----2---2-------|-0---------------|-----------------|
E|-3-------3-------|-0---------------|---------3-------|-2-------2-------|

e|-----3-------3---|-----0-------0---|-----0-------0---|-----2-----------|
B|-----0-------0---|-----0-------0---|-----1-------1---|-----1-------1-0-|
G|-----0-------0---|-----1-------1---|-----2-------2---|-----2-------2-0-|
D|-----0-------0---|-----2-------2---|-----2-------2---|-----0-------0-0-|
A|-----------------|-----2---2-------|-0---------------|-----------------|
E|-3-------3-------|-0---------------|---------3-------|-2-------2-------|

e|-----1-------1---|-----3-------3---|-----0-------0---|----------------||
B|-----1-------1---|-----0-------0---|-----1-------1-1-|-1-1------------||
G|-----2-------2---|-----0-------0---|-----0-------0-0-|-0-0------------||
D|-----3-------3---|-----0-------0---|-----2-------2-2-|-2-2------------||
A|---------3-------|-----------------|-3---------------|-3-------0---2--||
E|-1---------------|-3-------3-------|---------3-------|-----3----------||

Solo (w/slide):
  (C)                                 (C)               (F)
e|-----------------|----------------||-----------------|-----------------|
B|-----------------|-3/5-5/6-/8-/10-||-\8--------------|----/5---------3/|
G|-------0---------|----------------||-----/9---\7-5---|-----------------|
D|-----------------|----------------||---------------5/|-7---------------|
A|-----------------|----------------||-----------------|-----------------|
E|-----------------|----------------||-----------------|-----------------|

  (C)               (C)               (G)               (E)
e|---------0-------|-----------------|-----------------|------8/10\8/10\8|
B|/5-3--3h5-3h5p3--|-----------3--3/-|-8-----/12-\10\9-|-----------------|
G|-----5---------5-|-----------------|-----------------|-----------------|
D|----------------5|-----------------|-----------------|-----------------|
A|-----------------|-----------------|-----------------|-----------------|
E|-----------------|-----------------|-----------------|-----------------|

  (Am)    (Am/G)    (D7/F#)           (G)               (E)
e|-----------------|---------/8-\7---|---(7)\----------|-7\4--0----------|
B|-10--/5-p3-------|-----------------|-----------------|-------3--3-3/5--|
G|-----------5-----|-----------------|-----------------|-----------------|
D|-------------/7--|-----------------|-----------------|-----------------|
A|-----------------|-----------------|-----------------|-----------------|
E|-----------------|-----------------|-----------------|-----------------|

  (Am)    (Am/G)    (D7/F#)           (F)               (G)
e|-5---------------|-----------------|-----------------|-----------------|
B|----5p3---3------|-----------------|-----------------|-----------------|
G|-------4/5-7\5---|-----------------|-----------------|-----------------|
D|---------------7-|----2--2p0-------|-----------------|-----------------|
A|-----------------|-----------3-----|--3----------/5--|---/5--\3---2--3-|
E|-----------------|-------------/5--|-----------------|-----------------|
 
  (C)
e|-----------------|----------------||
B|--1-----------1--|----------------||
G|----0-----------0|----------------||
D|-------2-2-2h3---|-\2----0--------||
A|-----------------|----------------||
E|-----------------|----------------||

Ending:
e|-----1-------1---|-----------------|-0---------------|----------------||
B|-----1-------1---|-0---------------|-1-------1-------|----------------||
G|-----2-------2---|-0---------------|-0-----------0---|----------------||
D|-----3-------3---|-0---------------|-2---------------|----------------||
A|---------3-------|-2---------------|-3---------------|-3--------------||
E|-1---------------|-3---------------|-----------------|----------------||


| /  slide up
| \  slide down
| h  hammer-on
| p  pull-off
| ~  vibrato
| +  harmonic
| x  Mute note
===============================================================================
Tap to rate this tab
# A B C D E F G H I J K L M N O P Q R S T U V W X Y Z