Song name
# A B C D E F G H I J K L M N O P Q R S T U V W X Y Z

Norah Jones - Back To Manhatten tab

-------------------------------------------------------------------------------
			Norah Jones - Back to Manhatten
-------------------------------------------------------------------------------

 Tabbed by:dvanwyk
 Email:dustinvanwyk@yahoo.com

 Tuning:Standard

 Intro 
e|6------6------6------6-------------|
B|--6------6------6-------6----------|
G|-----------------------------------|
D|----8------8------8--------8-------|
A|-----------------------------------|
E|6------6------6------6--8--10------|

 
 Verse x2
e|---------------------6-------------| 
B|3------3------3---------6----------| 
G|--3------3------3------------------|
D|----5------5------5--------8-------|
A|6------6------6--------------------|
E|---------------------6--8--10------|

e|-------5------6--------------------|
B|3--------6~------6-----------------|
G|--3--------------------------------|
D|----5--3------------8--------------|
A|6----------------------------------|
E|--------------6--8--10-------------|

 
 Pre-Chorus
e|-----------------------|
B|3------3------3--------|
G|--3------3------3------|
D|----5------5------5----|
A|6------6------6--------|
E|-----------------------|


 Chorus
e|5------6-----------------------|
B|--6------6----3------3---------|
G|----5-----------3------3-------|
D|3----------8------5------5-----|
A|--------------6------6---------|
E|-------6-----------------------|

e|5-------------6------------------------|
B|--6----3---------6------3------3-------|
G|----5----3----------------3------3-----|
D|3----------5--------8-------4------4---|
A|-------6----------------6------6-------|
E|--------------6--8--10-----------------|

e|5------6--------------------------------------|
B|--6------6----4--------4--4--6--4------4------|
G|----5-----------3-----------------3------3----|
D|3----------8------5-----------------5------5--|
A|--------------6------6----6--5--6------6------|
E|-------6--------------------------------------|

e|------------|
B|------4~----|
G|----3~------|
D|--5~--------|
A|6~----------|
E|------------|

 verse x1

 Bridge
e|------------------------------|
B|3------3------3------3--------|
G|--6------6------6------6------|
D|----5------5------5------5----|
A|6------6------3------3--------|
E|------------------------------|

e|--------------------------------|
B|3------3------3--------3--------|
G|--6------6------5-3------5-3----|
D|----5------5--------5--------5--|
A|6------6------3--------3--------|
E|--------------------------------|

e|------------------------------------|
B|3------3------3----------3----------|
G|--3------3------5-3--------5-3------|
D|----5------5--------5-3--------5-3--|
A|6------6------3----------3----------|
E|------------------------------------|

e|---------------|
B|3------3-------|
G|--3------3-----|
D|----5------5---|
A|6------6-------|
E|---------------|

e|6----------|
B|---8-------|
G|-----------|
D|------8----|
A|-----------|
E|6--6--10---|

 Verse x1

 Pre-Chorus

 Chorus

 Verse x1
 
 Outro
e|---------------|
B|3------3-------|
G|--3------3-----|
D|----5------5---|
A|6------6-------|
E|---------------|

e|-----------|
B|3~---------|
G|3~---------|
D|5~---------|
A|6~---------|
E|-----------|
Tap to rate this tab
# A B C D E F G H I J K L M N O P Q R S T U V W X Y Z