Song name
# A B C D E F G H I J K L M N O P Q R S T U V W X Y Z

Norah Jones - Broken tab

-------------------------------------------------------------------------------
			     "BROKEN" - Norah Jones
-------------------------------------------------------------------------------
Tabbed by: JGervais
Email: n/a

Tuning: Standard with Capo on 5th Fret

e|------------3--x-x----2h3p2p0------0--x-x-------------------------|
B|------------3--x-x----3------------1--x-x-------------------------|
G|------------0--x-x----2------------2--x-x-----------------REPEAT--|
D|------------0--x-x-0--0------------2--x-x--0h2-------0h2----------|
A|------------2--x-x-------------0------x-x--------3----------------|
E|--0--2--3---3--x-x--------------------x-x-------------------------|

These are the Chords Repeated Throughout the Entire Song

G-  320033
D-  000232
Am- 002210
C-  032010

************************************


| h   hammer-on
| p   pull-off
| x   Mute note


************************************
Tap to rate this tab
# A B C D E F G H I J K L M N O P Q R S T U V W X Y Z